Cifra Club

When a New Down Arrives

Tierramystica

Cifrado: Principal (guitarra y guitarra eléctrica)
tono: C
   Am                                     C
E|---------------------------3--------|----------------3------------3--3h5-3------|
B|-3/5--3\1-3p1-----1-3-3/5-----3--5--|-3-3/5--3\1-3p1-----1-3-3/5-----------5-3--|
G|--------------2---------------------|-------------------------------------------|
D|------------------------------------|-------------------------------------------|
A|------------------------------------|-------------------------------------------|
E|------------------------------------|-------------------------------------------|
   Am                                     C
E|---------------------------3--------|----------------3------------3--3h5-3------|
B|-3/5--3\1-3p1-----1-3-3/5-----3--5--|-3-3/5--3\1-3p1-----1-3-3/5-----------5-3--|
G|--------------2---------------------|-------------------------------------------|
D|------------------------------------|-------------------------------------------|
A|------------------------------------|-------------------------------------------|
E|------------------------------------|-------------------------------------------|
   F                                          Am
E|---------------------------3--3h5-3-------|---------------------------3--------|
B|-3/5--3\1-3p1-----1-3-3/5-----------5--3--|-3/5--3\1-3p1-----1-3-3/5-----3--5--|
G|--------------2---------------------------|--------------2---------------------|
D|------------------------------------------|------------------------------------|
A|------------------------------------------|------------------------------------|
E|------------------------------------------|------------------------------------|

     C                                          F
E|----------------3------------3--3h5-3-------|---------------------------3--3h5-3-------|
B|-3-3/5--3\1-3p1-----1-3-3/5-----------5--3--|-3/5--3\1-3p1-----1-3-3/5-----------5--3--|
G|--------------------------------------------|--------------2---------------------------|
D|--------------------------------------------|------------------------------------------|
A|--------------------------------------------|------------------------------------------|
E|--------------------------------------------|------------------------------------------|
   G
E|----------------------|
B|-1--1/3-----1--1/3----|
G|----------------------|
D|----------------------|
A|----------------------|
E|----------------------|

( Am  F  G  Am  F  G  Dm  Dm )
( Am  F  G  Am  F  G  Dm  Dm  Dm  Dm )
Compositor no encontrado.
Colaboración y revisión:
  • Taino Vieira
    • ½ Tono
    • A
    • Bb
    • B
    • C
    • Db
    • D
    • Eb
    • E
    • F
    • F#
    • G
    • Ab
  • Agregar a la lista

    0 comentarios

    Ver todos los comentarios

    ¿Lograste tocar?

    2 Tocaron 0 Aún no

    ¡Graba un video tocando When a New Down Arrives y envíanoslo!

    00:00 / 00:00
    Otros videos de esta canción
    Repetir Calidad Automático
    Otros videos de esta canción
    00:00 / 00:00
    Automático
    OK