Cifra Club

Prego e Martelo

Tierry

Cifrado: Principal (guitarra y guitarra eléctrica)
tono: Eb
[Intro] Eb  Bb  Fm  Ab  Bb 

[Solo]

E|--3-4-3----3-----3-4-3----3--------1-3-1---1-------------------|
B|---------6--------------6----------------4---------------------|
G|---------------------------------------------------------------|
D|---------------------------------------------------------------|
A|---------------------------------------------------------------|
E|---------------------------------------------------------------|

E|-----3-4-3--------3---------------3----------------------------|
B|-4-6-------6-4--6--6-4--------4h6---6-4----3/4-4-4-4-4-4-6/8-6-|
G|-------------------------5--------------5----------------------|
D|---------------------------------------------------------------|
A|---------------------------------------------------------------|
E|---------------------------------------------------------------|

[Primeira Parte]

Eb
Ela quer voltar me pediu perdão
Bb
Mas eu só aceito sob a minha condição
Fm                                 
Sem descontar em mim a sua frustração
Ab                           Bb
Não é justo eu pagar por uma desilusão

                Eb
Se for pra maltratar melhor nem encostar
               Bb
Se for pra me ferir passa longe de mim
            Fm
Você já me esgamou já me despedaçou
               Ab                        Bb
Uma parte eu já colei a outra nem prestou

[Refrão]

 Eb
Meu coração não vai ser prego
Bb
Na parede pra você ser o martelo
Fm
E pô pô pô pô pô sempre batendo e
Ab            Bb
Pô pô pô pô para que tá doendo

Eb
Meu coração não vai ser prego
Bb
Na parede pra você ser o martelo
Fm
E pô pô pô pô pô sempre batendo e
Ab
Pô pô pô
Bb                         Eb  Bb  Fm  Ab  Bb
Assim você acaba me perdendo

[Segunda Parte]

               Eb
Se for pra maltratar Melhor nem encostar
               Bb
Se for pra me ferir Passa longe de mim
            Fm
Você já me esgamou Já me despedaçou
               Ab                        Bb
Uma parte eu já colei a outra nem prestou

[Refrão]

 Eb
Meu coração não vai ser prego
Bb
Na parede pra você ser o martelo
Fm
E pô pô pô pô pô Sempre batendo e
Ab           Bb
Pô pô pô pô Para que tá doendo

Eb
Meu coração não vai ser prego
Bb
Na parede pra você ser o martelo
Fm
E pô pô pô pô pô Sempre batendo e
Ab
Pô pô pô
Bb                         Eb  Bb  Fm  Ab  Bb
Assim você acaba me perdendo
Composición de Ivan Brasil / Tierry
Colaboración y revisión:
  • Vinicius Santos
1.437 vistas
    • ½ Tono
    • A
    • Bb
    • B
    • C
    • Db
    • D
    • Eb
    • E
    • F
    • F#
    • G
    • Ab
  • Agregar a la lista

    0 comentarios

    Ver todos los comentarios

    ¿Lograste tocar?

    2 Tocaron 2 Aún no

    ¡Graba un video tocando Prego e Martelo y envíanoslo!

    00:00 / 00:00
    Outros vídeos desta música
    Repetir Calidad Automático
    Outros vídeos desta música
    00:00 / 00:00
    Automático
    OK