Cifra Club

Rita

Tierry

Cifrado: Principal (guitarra y guitarra eléctrica)
tono: B
[Intro] B9  C#m  E  B9
        B9  C#m  E  B9

Tab - Solo Intro

Parte 1 De 2

E|----------------------------------------------|
B|-5h7--4-----2h4-2-------5h7--4-----2h4p2------|
G|--------6-4-------4-4/6--------6-4-------4-4~-|
D|----------------------------------------------|
A|----------------------------------------------|
E|----------------------------------------------|

Parte 2 De 2

E|----------------------------------------------|
B|-5h7--4-------2h4-2---------4h5p4-------------|
G|---------6-4---------4-4/6~--------4/6\4~-----|
D|----------------------------------------------|
A|----------------------------------------------|
E|----------------------------------------------|

[Primeira Parte] 

 B9           
Sua ausência ta

Fazendo mais

Estrago que a
              
 C#m        E
Sua traição 
      B9                      
Lê lê lê

B9                                 
Minha cama dobrou

De tamanho sem
   C#m              E
Você no meu colchão
 C#m         
Seu perfume ta impregnado
             E
Nesse quarto escuro

Que saudade desse cheiro de
                B9
Cigarro e desse álcool puro
            F#
Rita eu desculpo tudo

[Refrão] 

     B9      
Ooh Rita, volta
      C#m
Desgramada
       E    
Volta Rita que eu
            B9
Perdôo a facada

Ooh Rita, não
     C#m
Me deixa
       E     
Volta Rita que eu
          B9
Retiro a queixa

     B9        
Ooh Rita, volta
     C#m
Desgramada
       E      
Volta Rita que eu
            B9
Perdôo a facada

Ooh Rita, não
     C#m
Me deixa
       A    
Volta Rita que eu
           B9
Retiro a queixa

[Interlúdio] B9  C#m  E  B9 
             B9  C#m  E  F#  B9

Tab - Solo Interlúdio

Parte 1 De 2

E|----------------------------------------------|
B|-5h7--4-----2h4-2-------5h7--4-----2h4p2------|
G|--------6-4-------4-4/6--------6-4-------4-4~-|
D|----------------------------------------------|
A|----------------------------------------------|
E|----------------------------------------------|

Parte 2 De 2

E|----------------------------------9-9/11--7~--|
B|-5h7--4-----2h4-2-------7-9-7-9-7-------------|
G|--------6-4-------4-4/6~----------------------|
D|----------------------------------------------|
A|----------------------------------------------|
E|----------------------------------------------|

[Segunda Parte] 

 B9           
Sua ausência ta

Fazendo mais

Estrago que a
      
 C#m        E
Sua traição 
      B9                      
Lê lê lê

B9                                 
Minha cama dobrou

De tamanho sem
   C#m              E
Você no meu colchão
 C#m         
Seu perfume ta impregnado
             E
Nesse quarto escuro

Que saudade desse cheiro de
                B9
Cigarro e desse álcool puro
            F#
Rita eu desculpo tudo

[Refrão] 

     B9      
Ooh Rita, volta
      C#m
Desgramada
       E    
Volta Rita que eu
            B9
Perdôo a facada

Ooh Rita, não
     C#m
Me deixa
       E     
Volta Rita que eu
          B9
Retiro a queixa

     B9        
Ooh Rita, volta
     C#m
Desgramada
       E      
Volta Rita que eu
            B9
Perdôo a facada

Ooh Rita, não
     C#m
Me deixa
       A    
Volta Rita que eu
           B9
Retiro a queixa

[Final] B9  C#m  E  B9
        B9  C#m  E  F#  B9

Tab - Solo Final

Parte 1 De 2

E|----------------------------------------------------------------|
B|-5h7--4-----2h4-2-------5h7--4-----2h4p2------------------------|
G|--------6-4-------4-4/6--------6-4-------4-4~-------------------|
D|----------------------------------------------------------------|
A|----------------------------------------------------------------|
E|----------------------------------------------------------------|

Parte 2 De 2

E|----------------------------------9-9/11--7~--------------------|
B|-5h7--4-----2h4-2-------7-9-7-9-7-------------------------------|
G|--------6-4-------4-4/6~----------------------------------------|
D|----------------------------------------------------------------|
A|----------------------------------------------------------------|
E|----------------------------------------------------------------|
00:00 / 00:00
Otros videos de esta canción
Repetir
Otros videos de esta canción
Composición de Tierry
Colaboración y revisión:
  • LC Passos
  • Danillo
  • William Ragner
6.112 vistas
  • Simplificar cifrado
    • ½ Tono
    • A
    • Bb
    • B
    • C
    • Db
    • D
    • Eb
    • E
    • F
    • F#
    • G
    • Ab
  • Agregar a la lista

    0 comentarios

    Ver todos los comentarios

    ¿Lograste tocar?

    60 Tocaron 10 Aún no

    ¡Graba un video tocando Rita y envíanoslo!

    00:00 / 00:00
    OK