Cifra Club

Pobre De Ti

Tijuana No

Cifrado: Principal (guitarra y guitarra eléctrica)
Selo Cifra Club: esta cifra foi revisada para atender aos critérios oficiais da nossa Equipe de Qualidade.
tono: Bm
E|------(12)-------(7)---|
B|------(12)-------(7)---|
G|------(12)-------(7)---| 2 TIEMPOS
D|-----------------------|
A|-----------------------|
E|-0---------------------|

RIFF 1
E|----------------------|--------|
B|----------------------|--------|
G|----------------------|--------|
D|--9-9--9-9--9-9--9-9--|-11-11--| 3 VECES
A|--7-7--7-7--7-7--7-7--|--9--9--|
E|----------------------|--------|
   E5                    F#5

RIFF 2
E|-------------------------------|
B|-------------------------------|
G|-------------------------------|
D|--12-12-12--11-11-11---7-7-7---|
A|--10-10-10---9--9--9---5-5-5---|
E|-------------------------------|
     G5         F#5       D5

(SAX1)
E|-------------8---|----------------------|
B|-8-7-----8-7---8-|-8-7----8-7-8--8| H7P8--|
G|-----9-9---------|----9-9---------------|
D|-----------------|----------------------| 2 VECES
A|-----------------|----------------------|
E|-----------------|----------------------|

(SAX2)
E|-----------------------|----------------------|
B|-8888-8888-10-8-7-8-8--|-7777-7777-8-7---7-7--|
G|-----------------------|---------------9------|
D|-----------------------|----------------------| 2 VECES
A|-----------------------|----------------------|
E|-----------------------|----------------------|


(SAX1)

Em
B  NO DAS EL TRANCAZO TÚ
      Bm
TE LO DA EL DE A  ESQUINA, LO SABES       2 VECES


Em                    Bm
POBD  DE TI, POBD  DE TI HA HA HA         4 VECES


(D PITE 1ER PARRAFO)
(SAX2)

RIFF3
E|-----------------|-----------|
B|-----------------|-----------|
G|-----------------|-----------|
D|-----------------|-12-11--7--|
A|--9-9-9--9-9-9---|-10--9--5--|
E|--7-7-7--7-7-7---|-----------|
   B5     B5        G5 F#5 D5

(D PITE RIFF1)
(CON PAUSA AL FINAL)
(SAX1)


Em
ESTABAS EN A  CARCEL
        Bm
Y NADIE FUE NI PA´DARTE UNA VIB TA        2 VECES

Em                       Bm
POBD  DE TI, POBD  DE TI HA HA HA         4 VECES

(D PITE 2C  PARRAFO)
(SAX2)
(RIFF3)
(RIFF1)
(INTRO PARA FINAL)
Otros videos de esta canción
    1.088 exhibiciones
      • ½ Tono
      • Am
      • Bbm
      • Bm
      • Cm
      • C#m
      • Dm
      • Ebm
      • Em
      • Fm
      • F#m
      • Gm
      • G#m
    • Agregar a la lista

    Afinação da cifra

    Afinador online

      Ops (: Contenido disponible solo en portugués.
      OK