Cifra Club

Azul da Cor do Mar

Tim Maia

Tablatura: Principal (guitarra)
Tom: A
A7M  Bm7
Ah,      se o mundo inteiro
      C#m7
Me pudesse ouvir
              Bm7
Tenho muito pra contar
E7(4/9)                 A7M  E7(4/9)
        Dizer que aprendi

A7M  Bm7
E        na vida a gente
        C#m7
Tem que entender
               Bm7
Que um nasce pra sofrer
E7(4/9)                   A7M
        Enquanto o outro ri

[Solo] Bm7  C#m7  D7M  E7

 A7M  Bm7
Mas       quem sofre
                 C#m7
Sempre tem que procurar
            Bm7
Pelo menos vir achar
E7(4/9)               A7M  E7(4/9)
        Razão para viver

 A7M  Bm7
Ver       na vida algum motivo
  C#m7
Pra sonhar
              Bm7
Ter um sonho todo azul
E7(4/9)                 A7M
        Azul da cor do mar

[Solo] Bm7  C#m7  D7M  E7

 A7M  Bm7
Mas       quem sofre
                 C#m7
Sempre tem que procurar
            Bm7
Pelo menos vir achar
E7(4/9)               A7M  E7(4/9)
        Razão para viver

 A7M  Bm7
Ver       na vida algum motivo
  C#m7
Pra sonhar
              Bm7
Ter um sonho todo azul
E7(4/9)                 A7M
        Azul da cor do mar

[Solo] Bm7  C#m7  D7M  E7  A7M

[Parte 1 de 4]

    Bm7
E|-5-2-2--2--------------2-2-0-0------------|
B|-3------3-3-3---3------3-3-0-0------------|
G|-2------2---------4-4--2-2-0-0------------|
D|-4---------------------4-4-0-0------------|
A|-2------------2--------2-2-0-0------------|
E|------------------------------------------|
                         ↓ ↑ ↓ ↑

[Parte 2 de 4]

    C#m7
E|-7-4-4--4--------------4-4-0-0------------|
B|-5------5-5-5---5------5-5-0-0------------|
G|-4------4---------6-6--4-4-0-0------------|
D|-6---------------------6-6-0-0------------|
A|-4------------4--------4-4-0-0------------|
E|------------------------------------------|
                         ↓ ↑ ↓ ↑

[Parte 3 de 4]

    D7M
E|-9---------9-------12-9-9--9-9-0-0--------|
B|-7-10-10--10-7-7-----------7-7-0-0--------|
G|-7---------7---------------7-7-0-0--------|
D|-0---------------0---------0-0-0-0--------|
A|------------------------------------------|
E|------------------------------------------|
                             ↓ ↑ ↓ ↑

[Parte 4 de 4]

    E7
E|-0--0--0-0--0-2-5-2-----------------------|
B|-0--0--0-0--0-0-0-0-----------------------|
G|-1--1--1-1--1-1---------------------------|
D|-0--0--0-0--------------------------------|
A|-2--2--2-2--------------------------------|
E|-0--0--0-0--------------------------------|
reproducciones 2.878
Acordes para:
    Composição: Tim Maia Colaboración y revision:

    0 comentarios

    mostrar más comentarios

    ¿Conseguiste tocar?

    164 tocaron 18 aún no

    ¡Graba un vídeo tocando Azul da Cor do Mar y envianoslo!

    00:00 / 00:00
    outros vídeos desta música
    repetir qualidade Automático
    Outros vídeos desta música
    00:00 / 00:00
    Automático
    Capítulos
    • Tocando a Música
    • Dicas Iniciais / Equipamentos
    • Acordes Estrofes
    • Tocando Primeiras Estrofes
    • Ensinando Ritmo das Estrofes
    • Acordes Base do Solo
    • Tocando o Solo
    • Ensinando o Solo
    • Solo - Parte 1 de 4
    • Solo - Parte 2 de 4
    • Solo - Parte 3 de 4
    • Solo - Parte 4 de 4
    • Encerramento
    • Ficha Técnica
    OK