Cifra Club

Olá (Emoções)

Tim Maia

Tablatura: Principal (guitarra)
Tom: D#
(intro 2x) Bb  Db 

   Bb                    Db             Bb     F         Bb
Olá, há quanto tempo não sinto o teu olhar
   Bb                    Db             Bb     F         Bb
Olá, o que tens feito que não vens me abraçar
Dm                   Gm
O tempo se passou

      Eb              F
e aqui ainda estou
   F/D#     F/D            Gm
a es...pe...rar o teu amor
            Eb                F
que pra mim não acabou
          F/D#     F/D           F      Dm      Bb
me faz lem...brar ..........   e... mo... ções

      Eb                 F
Vivendo ao seu lado
Db             Db7
Vida, vem dizer
             Db             Db7
o que eu posso esperar
                         G#
de um grande amor
        Fm                Bb     Dm F
que só viveu em mim
    Db            Db7
quero entender
          Db                Db7           G#
essa força que me faz viver assim
        F           Bb  F
à espera de você

E|-----------5-/8-6----8-/11-10-----|
B|-7-/11-9--------------------------|
G|----------------------------------|
D|----------------------------------|
A|----------------------------------|
E|----------------------------------|

(repete tudo)

E|-/8-6-(6)-----6----------8-8-6-|----/8-6-(6)------ 6-8-/10-8-|-8-/6-8-(8)-----6-8-----|-/10-9(4x)-8h6p8---6----------------|
B|------------------6-4-3--------|--------------8--------------|---------------8-----6--|---------------------8---/5-7-4-----|
G|-------------------------------|-----------------------------|------------------------|---------------------------------7--|
D|-------------------------------|-----------------------------|------------------------|------------------------------------|
A|-------------------------------|-----------------------------|------------------------|------------------------------------|
E|-------------------------------|-----------------------------|------------------------|------------------------------------|

E|-/13-11-(11)-10-11h10p11-------9-7-5-------------|
B|----------------------------------11----------5--|
G|-------------------------------------------------|
D|-------------------------------------------------|
A|-------------------------------------------------|
E|-------------------------------------------------|

Dm                   Gm
O tempo se passou
      Eb              F
e aqui ainda estou
   F/D#     F/D            Gm
a es...pe...rar o teu amor
            Eb                F
que pra mim não acabou
          F/D#     F/D           F      Dm      Bb
me faz lem...brar ..........   e... mo... ções

      Eb                 F
Vivendo ao seu lado
Db             Db7
Vida, vem dizer
             Db             Db7
o que eu posso esperar
                          G#
de um grande amor
        Fm                Bb     Dm F
que só viveu em mim
    Db            Db7
quero entender
          Db                Db7           G#
essa força que me faz viver assim
        F           Bb  F
à espera de você

E|-----------5-/8-6----8-/11-10-----|
B|-7-/11-9--------------------------|
G|----------------------------------|
D|----------------------------------|
A|----------------------------------|
E|----------------------------------|
reproducciones 30
Acordes para:
    Composição: Beto Cajueiro / Marquinho Colaboración y revision:
    • Djalma Costa

    0 comentarios

    mostrar más comentarios

    ¿Conseguiste tocar?

    0 tocaron 0 aún no

    ¡Graba un vídeo tocando Olá (Emoções) y envianoslo!

    00:00 / 00:00
    outros vídeos desta música
    repetir qualidade Automático
    Outros vídeos desta música
    00:00 / 00:00
    Automático
    OK