Cifra Club

La vida es mejor cantando

Timbiriche

Cifrado: Principal (guitarra y guitarra eléctrica)
tono: E
E|-12-P-11----12-P-11----12-P-11----12-P-11-12-11-|
B|-12------12-12------12-12------12-12------12-12-|
G|------------------------------------------------|
D|------------------------------------------------|
A|------------------------------------------------|
E|------------------------------------------------|

E|-12-P-11----12-P-11----12-P-11----12-P-11-12-11-|
B|-12------12-12------12-12------12-12------12-12-|
G|------------------------------------------------|
D|------------------------------------------------|
A|------------------------------------------------|
E|------------------------------------------------|

E|-12-P-11----12-P-11----12-P-11----12-P-11-12-11-|
B|-12------12-12------12-12------12-12------12-12-|
G|------------------------------------------------|
D|------------------------------------------------|
A|------------------------------------------------|
E|------------------------------------------------|
                                    **
E|-12-P-11----12-P-11----12-P-11-12-12------------|
B|-12------12-12------12-12------12-12------------|
G|------------------------------------------------|
D|------------------------------------------------|
A|------------------------------------------------|
E|------------------------------------------------|

E                A
Si tú quieres al mundo cantar
    B              E    Esus4
Tú tienes que aprender
E                     A
Que mil sueños tú puedes tener
    B              E
y en la vida conquistar

E                A
Si tú quieres al sol cantar,
    B              E    Esus4
Tú tienes que aprender
E                  A
Que las sombras con él se van
   B        E
dejándote brillar
  C#m        G#m              F#m           B
¡Levantando tu voz vibrando, levantando tu voz!

E
Cantando,
   A        B    E
la vida es mejor Cantando
      A         B   C#m
Por siempre mi voz oirás
     G#m        F#m   B
Y al mundo descubrirás

E
Cantando,
   A        B    E
la vida es mejor Cantando
      A         B   C#m
Por siempre mi voz oirás
     G#m        F#m   B
Y al mundo descubrirás


E|-12-P-11----12-P-11----12-P-11----12-P-11-12-11-|
B|-12------12-12------12-12------12-12------12-12-|
G|------------------------------------------------|
D|------------------------------------------------|
A|------------------------------------------------|
E|------------------------------------------------|

E|-12-P-11----12-P-11----12-P-11----12-P-11-12-11-|
B|-12------12-12------12-12------12-12------12-12-|
G|------------------------------------------------|
D|------------------------------------------------|
A|------------------------------------------------|
E|------------------------------------------------|

E|-12-P-11----12-P-11----12-P-11----12-P-11-12-11-|
B|-12------12-12------12-12------12-12------12-12-|
G|------------------------------------------------|
D|------------------------------------------------|
A|------------------------------------------------|
E|------------------------------------------------|
                                    **
E|-12-P-11----12-P-11----12-P-11-12-12------------|
B|-12------12-12------12-12------12-12------------|
G|------------------------------------------------|
D|------------------------------------------------|
A|------------------------------------------------|
E|------------------------------------------------|

E                  A
Si tú quieres al trigo cantar
B              E    Esus4
Tú tienes que aprender
E                 A
Que el viento tu voz será
     B             E
 y la siembra crecerá

E                  A
Si tú quieres al sol cantar,
B              E    Esus4
Tú tienes que aprender
E                  A
Que las sombras con él se van
   B        E
dejándote brillar
  C#m        G#m              F#m           B
¡Levantando tu voz vibrando, levantando tu voz!

E
Cantando,
   A        B    E
la vida es mejor Cantando
      A         B   C#m
Por siempre mi voz oirás
     G#m        F#m   B
Y al mundo descubrirás

E
Cantando,
   A        B    E
la vida es mejor Cantando
      A         B   C#m
Por siempre mi voz oirás
     G#m        F#m   B
Y al mundo descubrirás

E
Cantando,
   A        B    E
la vida es mejor Cantando
      A         B   C#m
Por siempre mi voz oirás
     G#m        F#m   B
Y al mundo descubrirás
00:00 / 00:00
Otros videos de esta canción
Repetir
Otros videos de esta canción
Composición de Guillermo Mendez guiu / Pedro Muñoz Romero
1 vistas
    • ½ Tono
    • A
    • Bb
    • B
    • C
    • Db
    • D
    • Eb
    • E
    • F
    • F#
    • G
    • Ab
  • Agregar a la lista

    0 comentarios

    Ver todos los comentarios

    ¿Lograste tocar?

    0 Tocaron 0 Aún no

    ¡Graba un video tocando La vida es mejor cantando y envíanoslo!

    00:00 / 00:00
    OK