Cifra Club

La Cura Giusta

Timoria

Cifrado: Principal (guitarra y guitarra eléctrica)
Selo Cifra Club: esta cifra foi revisada para atender aos critérios oficiais da nossa Equipe de Qualidade.
tono: F#m
F#m  E  D  E  F#m  E  A  B


F#m          E          D
Strano trovarsi qui
       E              F#m
questo cortile
                       E  A
occhi scuri intorno a me
B               F#m
ho un po' paura
               E        D
Ma il peggio verr? da s?
       E          F#m
anche questa sera
                          E    A
il mio orgoglio grider?
B
cieco dolore


 F#m              E           D
 dicon: "la'hai voluto tu..."
        E              F#m          E        D
 qui c'? la cura giusta per non guarire mai


E  F#m  E  D  E  F#m  E  A  B


E|---------------------------------------------------------------------------------|
B|-------------------13---14-14---14---12--10------10-12-10-9-10-9-----------------|
G|---------10----11-12---13-13---13-----------11-----------------11-9-9-11---------|
D|---11--13----13------------------------------------------------------------------|
A|---------------------------------------------------------------------------------|
E|---------------------------------------------------------------------------------|

E|--------------------------------------------------------------------------------|
B|--10-12-12^-12-10---12^14(x| n?volte)-14^-14-15-17-15-14-15--- 9-10-12-10---14---|
G|---------------------------------------------------------14-------------11------|
D|--------------------------------------------------------------------------------|
A|--------------------------------------------------------------------------------|
E|--------------------------------------------------------------------------------|

E|--------------------------------------------------------------------------------|
B|---15-17-15-14-15-14/\/\/\------------------------------------------------------|
G|--------------------------------------------------------------------------------|
D|--------------------------------------------------------------------------------|
A|--------------------------------------------------------------------------------|
E|--------------------------------------------------------------------------------|

From Partes@fastwebnet.it

F#m       E          D
A  vita scivola
    E                F#m
in questo inferno che
            E           A
non si apre che per me
B             F#m
un uomo nudo
           E         D
Lividi e ferite sai
      E          F#m
non fanno male
              E       A
quanto la tua libert?
       B
sotto stracci bagnati

 F#m         E             D
 Ma che cosa vuoi che sia
        E                     F#m               E  D
 per te che non hai pianto sul tuo tempo che verr?

 Bm            F#m
Un nome un dio io non ho
    G                         F#m
per cancellare il buio dentro me
   Bm                F#m
la polvere del ricordo servir?
    G                        F#m
per caricare l'arma dei miei anni
      Bm                 F#m
Ma il sogno non sparir? mai
    C#m                           F#m
? tutto quel che resta della mia dignit?
                             C#m 
ma sono ancora vivo
00:00 / 00:00
Otros videos de esta canción
Repetir
Otros videos de esta canción
    • ½ Tono
    • Am
    • Bbm
    • Bm
    • Cm
    • C#m
    • Dm
    • Ebm
    • Em
    • Fm
    • F#m
    • Gm
    • G#m
  • Agregar a la lista

Afinación de cifrado

Afinador online

    00:00 / 00:00
    OK