Cifra Club

A Estrada

Titãs

Tablatura: Principal (guitarra)
Tom: C
(intro)

E |-----------------------------------------------------------------------
B |-----------------------------------------------------------------------
G |-----------------------------------------------------------------------
D |-----------------------------------------------------------------------
A |---------1--3-3------------1--3--3------------1--3--3----------1--3--3-
E |-3--1--3----------3--1--3------------3--1--3-----------3--1--3---------

(G5 F5 C)
Estou na estrada
Ou a estrada é que está em mim
Tenho pressa
Será que a estrada é que não tem fim

(C5 Bb5 ambos na corda lá)
Em cada curva uma vontade
Em cada reta uma ilusão
Se eu queria uma resposta
Só encontro interrogação

(G5 F5 C)
O tempo passa
Ou será que quem passou fui eu
Vou em frente
Não conheço outra direção

(C5 Bb5)
Se estou sozinho não é meu destino
Se estou perdido sinto a solidão
Se estou sozinho não é por acaso
Se estou perdido entrei na contra-mão

(D5 C5 B5 Bb5)
Ela não acaba,
Ela não acaba,
Ela não acaba,
Quando chego em casa
Ela não acaba
Quando chego

(riff)
E |-----------------------------------------------------------------------
B |-----------------------------------------------------------------------
G |-----------------------------------------------------------------------
D |-----------------------------------------------------------------------
A |---------1--3-3------------1--3--3------------1--3--3----------1--3--3-
E |-3--1--3----------3--1--3------------3--1--3-----------3--1--3---------

(G5 F5 C)
Estou na estrada
Ou essa estrada passa onde estou
Tenho pressa
Não interessa até aonde eu vou

(C5 Bb)
O tempo passa
Ou foi o vento que passou então
Vou em frente
Aonde foi que eu perdi o chão

(D5 C5 B5 Bb5)
Ela não acaba,
Ela não acaba,
Ela não acaba,
Quando chego em casa
Ela não acaba
Quando chego

(solo baixo)
(guitarra base) C G
reproducciones 32
Acordes para:
    Composição: Sérgio Britto / Tony Bellotto Colaboración y revision:
    • Marcos Díaz

    0 comentarios

    mostrar más comentarios

    ¿Conseguiste tocar?

    1 tocaron 0 aún no

    ¡Graba un vídeo tocando A Estrada y envianoslo!

    00:00 / 00:00
    outros vídeos desta música
    repetir qualidade Automático
    Outros vídeos desta música
    00:00 / 00:00
    Automático
    OK