Cifra Club

Antes de Você

Titãs

Tablatura: Principal (guitarra)
Tom: D
Riff 1:
   Bm     G      D
E|-2--2---3--3---2--0---------|
B|-3---3--3---3--3----3-2-0---|
G|-4------4------2----------2-|
D|-4------5------0------------|
A|-2------5-------------------|
E|--------3-------------------|

   Bm     G      D
E|-2--2---3--3---2--0---------|
B|-3---3--3---3--3----3-2-----|
G|-4------4------2------------|
D|-4------5------0------------|
A|-2------5-------------------|
E|--------3-------------------|

Riff 2:
|-2-0-2---|
|---------|
|---------|
|---------| (4x)
|---------|
|---------|

(riff 1)
Bm   G            D
Antes não pensava em você
Bm   G               D
Agora tudo é uma lembrança sua
Bm   G          D
Nunca me preocupei, com você
Bm  G            D
Hoje já não faço outra coisa

(riff 2) Bm G D A

Bm        G            D
Não saio mais pra passear
          A               Bm
Só quero ir aonde você está
         G                   D            A
O livro não é bom, não quero ouvir um som
                  E
Não acho nada na TV.

          G            D         A      E
Não me lembro como eu era antes de você
          G            D         A
Não me lembro como eu era antes de você

(riff 2)  Bm G D A

Bm             G           D
Não penso em sair pra passear
          A                Bm
Só quero ir aonde você está
        G
Com amigos não falo
      D               A
Não volto ao trabalho
                    E
Como pude me esquecer?

          G            D         A      E
Não me lembro como eu era antes de você
          G            D         A
Não me lembro como eu era antes de você
Solo:
   Bm     G      D
E|-2--2---3--3---2--0---------|
B|-3---3--3---3--3----3-2-0---|
G|-4------4------2----------2-|
D|-4------5------0------------|
A|-2------5-------------------|
E|--------3-------------------|

Bm           G   D
  Não tenho fome
       A        Bm
Não quero beber
         G               D   A
Quero saber se você já dorme
Bm        A                F#m           G
  Tudo passa, a noite deve passar também
         Bm             A               E
Não me lembro como eu era antes de você

         G            D         A      E
Não me lembro como eu era antes de você
         G            D         A      E
Não me lembro como eu era antes de você
         G            D         A      E
Não me lembro como eu era antes de você
         Bm             A               E
Não me lembro como eu era antes de você
   Bm     G      D
E|-2--2---3--3---2--0-----------|
B|-3---3--3---3--3----3-2-------|
G|-4------4------2--------------|
D|-4------5------0--------------|
A|-2------5---------------------|
E|--------3---------------------|

   Bm     G      D
E|-2--2---3--3---2--0-----------|
B|-3---3--3---3--3----3-2-0----2|
G|-4------4------2----------2--2|
D|-4------5------0-------------0|
A|-2------5--------------------0|
E|--------3---------------------|
reproducciones 60
Acordes para:

    0 comentarios

    mostrar más comentarios

    ¿Conseguiste tocar?

    13 tocaron 1 aún no

    ¡Graba un vídeo tocando Antes de Você y envianoslo!

    00:00 / 00:00
    outros vídeos desta música
    repetir qualidade Automático
    Outros vídeos desta música
    00:00 / 00:00
    Automático
    OK