Cifra Club

Bichos Escrotos

Titãs

Cifrado: Principal (guitarra y guitarra eléctrica)
tono: C
[Intro]

    Dm     C#7
E|--5--5/-9------------------------------|
B|--6--6/-9------------------------------|
G|--7--7/-9------------------------------| 
D|--7--7/-9------------------------------|
A|--5--5/--------------------------------|
E|---------------------------------------|

 Dm
Bichos
Saiam dos lixos
Baratas
Me deixem ver suas patas
Ratos
Entrem nos sapatos
Do cidadão civilizado
Pulgas
Que habitam minhas rugas

Onçinha pintada
Zebrinha listrada
Coelhinho peludo
Vão se foder
Porque aqui na face da terra
Só bicho escroto é que vai ter

 Dm
Bichos escrotos, saiam dos esgotos
Bichos escrotos, venham enfeitar

 C
Meu lar
Meu jantar
Meu nobre paladar

[Solo]

E|--------------------------------------------|
B|--6------6b-----6b-----5--5-----------------|
G|------7----7b-----7b----5---5---------------|
D|----8---------------8b----------------------|
A|--------------------------------------------|
E|--------------------------------------------|

 Dm
Bichos 
Saiam dos lixos
Baratas 
Me deixem ver suas patas
Ratos 
Entrem nos sapatos
Do cidadão civilizado
Pulgas
Que habitam minhas rugas

Onçinha pintada
Zebrinha listrada
Coelhinho peludo
Vão se foder
Porque aqui na face da terra
Só bicho escroto é que vai ter

 Dm
Bichos escrotos, saiam dos esgotos
Bichos escrotos, venham enfeitar

 C
Meu lar
Meu jantar
Meu nobre paladar
00:00 / 00:00
Otros videos de esta canción
Repetir
Otros videos de esta canción
Composición de Arnaldo Antunes / Nando Reis / Sérgio Britto
Colaboración y revisión:
1.140 vistas
    • ½ Tono
    • A
    • Bb
    • B
    • C
    • Db
    • D
    • Eb
    • E
    • F
    • F#
    • G
    • Ab
  • Agregar a la lista

    0 comentarios

    Ver todos los comentarios
    00:00 / 00:00
    OK