Cifra Club

Cadáver Sobre Cadáver

Titãs

Tablatura: Principal (guitarra)
Tom: A
Intro:

Riff 1:
E|------------------------------------------|
B|------------------------------------------|
G|--------------5-------7-7-7-7-7---5-------|
D|----------7-5---5-7-7-----------7---5-7-7-|
A|-----5-7----------------------------------|
E|-5-7--------------------------------------|(4x)

A               E
Morre quem mereceu
        D        A
E quem não merecia
                  E
Morre quem viveu bem
           D        A
E quem mal sobrevivia

              E
Morre o homem sadio
          D          A
E o que fumava e bebia
                    E
Morre o crente e o ateu
         D          A
Um do outro companhia

Refrão:

Riff 2:
E|----------------------------------------------------------------|
B|----------------------------------------------------------------|
G|----------------------------------------------------------------|
D|----------------------------------------------------------------|
A|----------------------------------------------------------------|
E|-5-8-8-5-8-5-5-5--5-8-8-5-8-5-5-5--5-0-0-3-5-5-5--5-0-0-3-5-5-5-|

  C              A
Cadáver sobre cadáver
  C              A
Cadáver sobre cadáver
     E         A
Quem vive sobrevive
     E         A
Quem vive sobrevive

A              E
No meio do tiroteio
        D         A
No seio da calmaria
                       E
Morrem na guerra ou na paz
              D      A
De fome ou de anorexia

A                      E
Morrem os outros ou os seus
        D          A
A foice não se sacia
                     E
Morre o homem, morre Deus
       D        A
O luto não alivia

Riff 2

  C              A
Cadáver sobre cadáver
  C              A
Cadáver sobre cadáver
     E         A
Quem vive sobrevive
     E         A
Quem vive sobrevive
reproducciones 10
Acordes para:
    Colaboración y revision:
    • Claudio Albuquerque
    • Rafael Bispo

    0 comentarios

    mostrar más comentarios

    ¿Conseguiste tocar?

    4 tocaron 0 aún no

    ¡Graba un vídeo tocando Cadáver Sobre Cadáver y envianoslo!

    00:00 / 00:00
    outros vídeos desta música
    repetir qualidade Automático
    Outros vídeos desta música
    00:00 / 00:00
    Automático
    OK