Cifra Club

Domingo

Titãs

Tablatura: Principal (guitarra)
Tom: G
     [Riff 1]                            [Riff 2]                  [Riff 3]
E|----------------------------| |-----------------------|  |-------------------|
B|----------------------------| |-----------------------|  |-------------------|
G|----------------------------| |-----------------------|  |-------------------|
D|----------------------------| |-----------------------|  |-------------------|
A|2-3-2------------0-2--------| |2h3/2-----------3-2-0--|  |2h3/2-----3-3-0-2-3|-
E|------3-0-3-3-3-------3-3---| |------3-0-3-3-0-------3|  |------3-0----------|

    [Riff 4]                         [Riff 6]                 [Riff 5]

E|--------------------------|  |----------------| |------------------------------|
B|8-8-8-5-------------------|  |----------------| |------------------------------|
G|--------7-4---4-----4-7---|  |----------------| |-----------------4-5----------|
D|------------7-----7--(4)--|  |----------------| |----------7--7-7-4-5--------5-|
A|--------------------------|  |----3-2-----2---| |2h3/2-----7--7-7-2-3--------5-|
E|--------------------------|  |0-0-----3-0---3-| |------3-0-5--5-5------------3-|

[Final]

E|-----------------------|
B|-----------------------|
G|-----------------------|
D|5----------------------|
A|5----------------------|
E|3----------------------|

[Intro]  [Riff 1]  [Riff 2] 

 [Riff 1]
Não sei o que fazer

 [Riff 1]
Não sei o que fazer

[Riff 1]
Eu saio por aí

 [Riff 1]
Sem ter aonde ir

 [Riff 1]
Não é sete de setembro

 [Riff 1]
Nem dia de finados

 [Riff 1]
Não é sexta-feira santa

 [Riff 1]
Nem um outro feriado

[Riff 3]
E antes que eu esqueça aonde estou

[Riff 3]
Antes que eu esqueça aonde estou

[Riff 6]
Aonde estou com a cabeça?

 [Riff 1]
Tudo está fechado

 [Riff 1]
Tudo está fechado

 [Riff 1]
Domingo é sempre assim

[Riff 1]
E quem não está acostumado?

[Riff 1]
É dia de descanso

 [Riff 1]
Nem precisava tanto

[Riff 1]
É dia de descanso

  [Riff 1]
Programa Silvio Santos
reproducciones 229
Acordes para:
    Composição: Sérgio Britto / Toni Bellotto Colaboración y revision:
    • Marcos Paulo
    • hugo tonon
    • Vinicius Miqueloti

    0 comentarios

    mostrar más comentarios

    ¿Conseguiste tocar?

    1 tocaron 0 aún no

    ¡Graba un vídeo tocando Domingo y envianoslo!

    00:00 / 00:00
    outros vídeos desta música
    repetir qualidade Automático
    Outros vídeos desta música
    00:00 / 00:00
    Automático
    OK