Cifra Club

Domingo

Titãs

Tab de bajo: Versão 2
Álbum: Domingo

Verso

G|----------------------------------------------------------------|
D|----------------------------------------------------------------|
A|---3-2--------------0-2-------0-3-2--------------0-2------------|
E|-------3-0-3--3-0-3-----3-0-3-------3-0-3--3-0-3-----3-0--0-----|

"E antes que eu esqueça onde estou..." - "E antes que eu confunda o domingo..."

G|------------------------------------------------------------------------|
D|------------------------------------------------------------------------|
A|----3-2-----3-3-----3-3--3-------3-3-----3-3------3-------2-------------|
E|--0-----3-0-----3-5--------5-3-0-----3-5------3-5---5-3-0---3--0-3-0-3--|

Refrão

G|-----------------------------------------------------|
D|-----------------------------------------------------|
A|--------------3-3---3-----------------333-222--------|
E|--5-5-3-5-3-5-----5---5-0-3-3-0-3-0-3---------5-3-5--|

"Até o próximo..."

G|--------------------------------------------|----------------------------------------|
D|--5-5(várias vezes no rítmo - isso 4 vezes)-|----------------------------------------|
A|--------------------------------------------|------2---2-3------3-2---------(repete)-|
E|--------------------------------------------|--3--3---3-----3--3-----3-0-3------------|

Final

G|----------------------------------------------------------------
D|----------------------------------------------------------------
A|---3-2--------------0-2-------0-3-2--------------0-2------------
E|-------3-0-3--3-0-3-----3-0-3-------3-0-3--3-0-3-----3-0--0-----

--------------------------------------------------------|
--------------------------------------------------------|
---3-2--------------0-2-------0-3-2------------3-2-0----|
-------3-0-3--3-0-3-----3-0-3-------3-0-3--3-0-------3--|

-x- m.m.a. -x-
Composición de Sérgio Britto / Toni Bellotto
Colaboración y revisión:
  • Marcelo Marques
7 vistas

0 comentarios

Ver todos los comentarios
00:00 / 00:00
Otros videos de esta canción
Repetir Calidad Automático
Otros videos de esta canción
00:00 / 00:00
Automático
OK