Cifra Club

É Preciso Saber Viver

Titãs

Cifrado: Principal (guitarra y guitarra eléctrica)
Selo Cifra Club: esta cifra foi revisada para atender aos critérios oficiais da nossa Equipe de Qualidade.
tono: D
[Intro] D  D7M  D7  G  Gm6
        D  Bm  E  G  A7

[Primeira Parte]

        D
Quem espera que a vida
      D7M
Seja feita de ilusão
       D7
Pode até ficar maluco
       G
Ou morrer na solidão
      Gm6
É preciso ter cuidado
          D            Bm
Pra mais tarde não sofrer
E          G       A7
É preciso saber viver

      D
Toda pedra no caminho
      D7M
Você pode retirar
       D7
Numa flor que tem espinhos
      G
Você pode se arranhar
      Gm6
Se o bem e o mal existem
      D         Bm
Você pode escolher
E          G       A7
É preciso saber viver

[Refrão]

G          D       Bm
É preciso saber viver
G          D       Bm
É preciso saber viver
G          D       Bm
É preciso saber viver
 E          G  A7
Saber viver

[Solo] D  D7M  D7  G  Gm6 
       D  Bm  E  G  A7 
       D  D7M  D7  G  Gm6 
       D  Bm  E  G  A7 

[Tab - Solo]

Parte 1 de 4
E|-----7\--5/--7\-------------------------------------|
B|-5/7-------------5/7--------------------------------|
G|---------------------7---4/6~-----------------------|
D|----------------------------------------------------|
A|----------------------------------------------------|
E|----------------------------------------------------|

Parte 2 de 4
E|-----7\--5/--7/--10--12\10/14\---12\10/12-----------|
B|--/7--------------------------------------12~-------|
G|----------------------------------------------------|
D|----------------------------------------------------|
A|----------------------------------------------------|
E|----------------------------------------------------|

Parte 3 de 4
E|----------------------------------------------------|
B|-10/11~~--11/13\---8/10-----\\----------------------|
G|------------------------10--\\----------------------|
D|----------------------------------------------------|
A|----------------------------------------------------|
E|----------------------------------------------------|

Parte 4 de 4
E|----------------------------------------------------|
B|-------------9~----9/12--12--12---12/14~------------|
G|-7\4/9-------9~----9/12--12--12---12/14~------------|
D|--------/-9~-------9/12--12--12---12/14~------------|
A|----------------------------------------------------|
E|----------------------------------------------------|

[Primeira Parte]

        D
Quem espera que a vida
      D7M
Seja feita de ilusão
       D7
Pode até ficar maluco
       G
Ou morrer na solidão
      Gm6
É preciso ter cuidado
          D            Bm
Pra mais tarde não sofrer
E          G       A7
É preciso saber viver

      D
Toda pedra no caminho
      D7M
Você pode retirar
       D7
Numa flor que tem espinhos
      G
Você pode se arranhar
      Gm6
Se o bem e o mal existem
      D         Bm
Você pode escolher
E          G       A7
É preciso saber viver

[Refrão]

G          D       Bm
É preciso saber viver
G          D       Bm
É preciso saber viver
G          D       Bm
É preciso saber viver
 E          G  A7
Saber viver

G          D       Bm
É preciso saber viver
G          D       Bm
É preciso saber viver
G          D       Bm
É preciso saber viver
 E          G  A7
Saber viver

G          D       Bm
É preciso saber viver
G          D       Bm
É preciso saber viver
G          D       Bm
É preciso saber viver
 E          G  A7  D
Saber viver
Otros videos de esta canción
    13.502 exhibiciones
    • Simplificar cifrado
      • ½ Tono
      • A
      • Bb
      • B
      • C
      • Db
      • D
      • Eb
      • E
      • F
      • F#
      • G
      • Ab
    • Agregar a la lista

    Afinação da cifra

    Afinador online

      Capítulos
      • Tocando a música
      • Dicas iniciais / Equipamentos
      • Acordes da música
      • Ensinando ritmo da música
      • Ensinando Solo (Slide)
      • Ensinando Solo (Sem Slide)
      • Encerramento
      • Ficha técnica / Erros de gravação
      Ops (: Contenido disponible solo en portugués.
      OK