Cifra Club

Eu Não Presto

Titãs

Tablatura: Principal (guitarra)
Tom: A
Intro
E|----------------------------------------------------------------------------|
B|----------------------------------------------------------------------------|
G|--2-2-2------2--------------------------------------------2-2-2-------2-----|
D|----------4------4------2-2-2--------2----------------------------4------4--|
A|----------------------------------4-------4---2---0-------------------------|
E|----------------------------------------------------------------------------|

E|----------------------------------------------------------------------------|
B|---2/3----3---5---3---------------------------------------------------------|
G|---3/4----4---6---4---------------------------------------------------------|
D|----------------------------------------------------------------------------|
A|----------------------------------------------------------------------------|
E|----------------------------------------------------------------------------|

A               C#m
Eu vivo mudando de opinião
F#m                Bm           E
Teias de aranhas habitam o meu coração
    A                  C#m   
Pessoas tão honestas vagando pelas ruas
 F#m                         Bm       E
Me fazem lembrar que eu não passo de um canalha

A              E
Eu não presto, eu não presto
F#m            E   
Eu não presto, eu não presto

E|----------------------------------------------------------------------------|
B|----------------------------------------------------------------------------|
G|--2-2-2------2--------------------------------------------2-2-2-------2-----|
D|----------4------4------2-2-2--------2----------------------------4------4--|
A|----------------------------------4-------4---2---0-------------------------|
E|----------------------------------------------------------------------------|

E|----------------------------------------------------------------------------|
B|---2/3----3---5---3---------------------------------------------------------|
G|---3/4----4---6---4---------------------------------------------------------|
D|----------------------------------------------------------------------------|
A|----------------------------------------------------------------------------|
E|----------------------------------------------------------------------------|

A                                 C#m
Eu já tentei de tudo pra me modificar
       F#m                     Bm                 E  
Dos vícios eu larguei até Deus fui procurar
                 A                            C#m
Mais num mundo tão sincero não há lugar pra mim
       F#m              Bm              E
Todos dizem a verdade só eu sou falso assim

Solo Final
E|----------------------------------------------------------------------------|
B|----------------------------------------------------------------------------|
G|--2-2-2------2--------------------------------------------------------------|
D|----------4------4------2-2-2--------2-----------------------2--------------|
A|----------------------------------4-------4---2---0----4-----0--------------|
E|-------------------------------------------------------2--------------------|

E|----------------------------------------------------------------------------|
B|----------------------------------------------------------------------------|
G|--2-2-2------2--------------------------------------------------------------|
D|----------4------4------2-2-2--------2-------------------------2------------|
A|----------------------------------4-------4---2---0----4---2---0------------|
E|-------------------------------------------------------2---0----------------|
reproducciones 42
Acordes para:
    Composição: Branco Mello / Ciro Pessoa Colaboración y revision:
    • VLADIMIR KLIMEIKA
    • Leandro Dias

    0 comentarios

    mostrar más comentarios

    ¿Conseguiste tocar?

    0 tocaron 0 aún no

    ¡Graba un vídeo tocando Eu Não Presto y envianoslo!

    00:00 / 00:00
    outros vídeos desta música
    repetir qualidade Automático
    Outros vídeos desta música
    00:00 / 00:00
    Automático
    OK