Cifra Club

Fardado

Titãs

Tablatura: Principal (guitarra)
Tom: E
Intro:

Guitarra 1 (guitarra solo)
E|-0---0-0-0-0---0---0-0-5~|
B|-5/7-5-4-5-2---5/7-5-4-4~|
G|-------------------------|  2x
D|-------------------------|
A|-------------------------|
E|-------------------------|

Guitarra 2
E|-------------------------|
B|-------------------------|
G|-------------------------|   2x
D|-------------------------|
A|-------------------------|
E|-0-2---0-2---0-2---0-2---|

Versos:

Riff 1:
E|------------------------------|
B|------------------------------|
G|------------------------------|
D|------------------------------|
A|------------------------------|
E|-0-2--2-5-2-0-2--0-2--2-5-2-2-|

Você também é explorado
Fardado
Você também é explorado
Aqui! (2x)


Riff 2:
E|----------------------------------|
B|----------------------------------|
G|----------------------------------|
D|----------------------------------|
A|----------------------------------|
E|-0-2-0-2-0-2-0-2-0-2-0-2-0-2-0-2--|

Por que você não abaixa essa arma
O meu direito é seu dever
Por que você não usa essa farda
Pra servir e pra proteger

Riff 2 (Variação):
E|----------------------------------------|
B|----------------------------------------|
G|----------------------------------------|
D|----------------------------------------|
A|----------------------------------------|
E|0-2~-0-2~-0-2~-0-2~-0-2~-0-2~-0-2~-0-2~-|

Por que você não escuta o que eu digo?
Não limpa as botas de terra!
Não prende esse cachorro contigo!
Não abre a rua e limpa essa merda!


Riff 1 (Guitarra 1)

Ponha-se no meu lugar!
Ponha-se no seu lugar!
Ponha-se no meu lugar!
No meu lugar!

Riff 1 (Guitarra 1)
Riff 3 (Guitarra 2):
E|--0---0-0-0---0-----0-------------------|            
B|--5/7-7-7-7---4s5s4-4s5s4---------------| 
G|----------------------------------------| 4x
D|----------------------------------------|
A|----------------------------------------|
E|----------------------------------------|

Ponha-se no meu lugar!
Ponha-se no seu lugar!
Ponha-se no meu lugar!
No meu lugar!


Intro


Riff 1

Você também é explorado,              
Fardado!                          (Nessa parte, na segunda vez, entra uma segunda guitarra tocando o riff 3)
Você também é explorado
Aqui! (2x)


Riff 2

Por que você não abaixa esse escudo?
O meu direito é sua obrigação
Por que não olha antes de tudo?
O seu dever é minha autorização

Riff 2 (Variação)

Por que você não escuta o que eu falo?
Não limpa a terra das botas
Por que não segura esse cavalo?
Não abre a rua e limpa essa bosta?


Riff 1

Ponha-se no meu lugar!
Ponha-se no seu lugar!  2x
Ponha-se no meu lugar!
No meu lugar!


Base do solo: Riff 2 e rif 2 Variação


Você também é explorado,              
Fardado!                   2x
Você também é explorado
Aqui! 


Riff 1 (Guitarra 1)

Ponha-se no meu lugar!
Ponha-se no seu lugar!
Ponha-se no meu lugar!
No meu lugar!

Riff 1     (Guitarra 1)
Riff Intro (Guitarra 2 [guitarra solo]):

Ponha-se no meu lugar!
Ponha-se no seu lugar!
Ponha-se no meu lugar!
No meu lugar!
reproducciones 138
Acordes para:
    Composição: Paulo Miklos / Sérgio Britto Colaboración y revision:
    • Lucas Souza
    • Rafael Bispo

    0 comentarios

    mostrar más comentarios

    ¿Conseguiste tocar?

    8 tocaron 0 aún no

    ¡Graba un vídeo tocando Fardado y envianoslo!

    00:00 / 00:00
    outros vídeos desta música
    repetir qualidade Automático
    Outros vídeos desta música
    00:00 / 00:00
    Automático
    OK