Cifra Club

Gina Superstar

Titãs

Tablatura: Principal (guitarra)
Tom: E
Intro:
E|-------------------------------------------------
B|--------------------------------------------
G|--------------------------------------------------
D|------------------------------------------------
A|--------------------------------------------------
E|-5-5-4-4-5-5-5-5-4-4-5-5-5-5-4-4-5-5-5-5-4-4-5-5/8

E|---------------------------------------------
B|----------------------------------------------
G|----------------------------------------------
D|----------------------------------------------
A|----------------------------------------------
E|-5-5-4-4--5-5-5-5-4-4-5-5-5-5-4-4-5-5-5-5-4-4-5-5

1ª parte:
E|-------------------------------------------
B|-------------------------------------------       
G|-------------------------------------------       
D|-------------------------------------------  
A|-------------------------------------------
E|-5-5-4-4-5-5-5-5-4-4-5-5-5-5-4-4-5-5-5-5-4-4-5-5

E|-------------------------------------------
B|-------------------------------------------       
G|-------------------------------------------       
D|-------------------------------------------  
A|-------------------------------------------
E|-5-5-4-4-5-5-5-5-4-4-5-5-5-5-4-4-5-5-5-5-4-4-5-5

E|-------------------------------------------------
B|--------------------------------------------
G|--------------------------------------------------
D|------------------------------------------------
A|--------------------------------------------------
E|-5-5-4-4-5-5-5-5-4-4-5-5-5-5-4-4-5-5-5-5-4-4-5-5/8

Pré refrão:  E5  D5  B5  A5  B5  A5  B5  A5

Refrão: E5  D5  A5  B5   2x

E|------------------------------------------------
B|----------------------------------------------   
G|--9-7-9-7-----------------------------------   
D|----------9--7-7--9-------------------------      
A|---------------------7-------------------------
E|------------------------------------------
                     6x






2ª parte:
E|-------------------------------------------
B|-------------------------------------------       
G|-------------------------------------------       
D|-------------------------------------------  
A|-------------------------------------------
E|-5-5-4-4-5-5-5-5-4-4-5-5-5-5-4-4-5-5-5-5-4-4-5-5

E|-------------------------------------------
B|-------------------------------------------       
G|-------------------------------------------       
D|-------------------------------------------  
A|-------------------------------------------
E|-5-5-4-4-5-5-5-5-4-4-5-5-5-5-4-4-5-5-5-5-4-4-5-5

E|-------------------------------------------------
B|--------------------------------------------
G|--------------------------------------------------
D|------------------------------------------------
A|--------------------------------------------------
E|-5-5-4-4-5-5-5-5-4-4-5-5-5-5-4-4-5-5-5-5-4-4-5-5/8

Pré refrão:  E5  D5  B5  A5  B5  A5  B5  A5

Refrão: E5  D5  A5  B5   4x

E|------------------------------------------------
B|----------------------------------------------   
G|--9-7-9-7-----------------------------------   
D|----------9--7-7--9-------------------------      
A|---------------------7-------------------------
E|------------------------------------------
                     3x

E|----------------------------------------------- 
B|-----------------------------------------------
G|--9-7-9-7------------------------------------  
D|----------9--7-7--9-----7--9----7--9----7-7-7--- 
A|--------------------7--------7-------7---------
E|------------------------------------------------





Intro: A

A
Gina quer ser capa revista
Gina andar com milionário
Gina quer levar vida de artista
Gina quer posar pro calendário

A
Ela quer ser chique
Quer comprar uma mansão
Quer gravar um clipe
Ser a musa do verão

B              A
Vão te conquistar
B         A
E te seduzir
B            A
Vão te contratar
B          A 
E te produzir

E
Pop star
D
Movie star
A
Rock star
B
Super star
E
Pop star
D
Movie star
A
Rock star
B
Super star
        E  A 
Gina

E  A  E  A  E  A  E  A

A

A
Gina que trocar o silicone
Gina quer sair na avenida
Gina quer ganhar um sobrenome
Gina quer mudar a sua vida

A
Ela quer dinheiro
E ser estrela de cinema
Quer o mundo inteiro
Seja loira ou morena

B           A
Vão te explorar
B          A
E te consumir
B             A
Vão te abandonar
B           A
E te destruir

E
Pop star
D
Movie star
A
Rock star
B
Super star
E
Pop star
D
Movie star
A
Rock star
B
Super star
E
Pop star
D
Movie star
A
Rock star
B
Super star
E
Pop star
D
Movie star
A
Rock star
B
Super star
      E  A
Gina

E  A  E  A  E  A  E
reproducciones 11
Acordes para:
    Composição: Branco Mello / Charles Gavin / Tony Bellotto Colaboración y revision:
    • Lucas Amorim

    0 comentarios

    mostrar más comentarios

    ¿Conseguiste tocar?

    0 tocaron 0 aún no

    ¡Graba un vídeo tocando Gina Superstar y envianoslo!

    00:00 / 00:00
    outros vídeos desta música
    repetir qualidade Automático
    Outros vídeos desta música
    00:00 / 00:00
    Automático
    OK