Cifra Club

Go Back

Titãs

Tablatura: Principal (guitarra)
Tom: C
[Intro]

E|----5----------------5-----------------|
B|------5-3-2-3-5-3-2----5-3-2-----------|
G|---------------------------------------|
D|---------------------------------------|
A|---------------------------------------|
E|---------------------------------------|

[Versos]

E|------------------------------------|
B|------------------------------------|
G|------------------------------------|
D|------------------------------------|
A|--------4--------------------5-7----|
E|--5-5-5-----0-5-6-7-7-7-0-----------|
 
 C        Em
Você me chama
Dm       G
Eu quero ir pro cinema
 C       Em
Você reclama
 Dm      G
Meu coração não contenta
 C      Em
Você me ama
          Dm   G
Mas de repente a madrugada
   C
Mudou
      Em   Dm  G
E certamente
                   C
Aquele trem já passou
         Em
E se passou
        Dm     G     C  Em
Passou daqui pra melhor
 Dm  G
Foi

 C          Em
Só quero saber
                 Dm   G
Do que pode dar certo
                   C
Nao tenho tempo a perder
reproducciones 433
Acordes para:
    Composição: Sérgio Britto / Torquato Neto Colaboración y revision:

    0 comentarios

    mostrar más comentarios

    ¿Conseguiste tocar?

    9 tocaron 2 aún no

    ¡Graba un vídeo tocando Go Back y envianoslo!

    00:00 / 00:00
    outros vídeos desta música
    repetir qualidade Automático
    Outros vídeos desta música
    00:00 / 00:00
    Automático
    OK