Cifra Club

Não Pode

Titãs

Tablatura: Principal (guitarra)
Tom: A
Intro:

Riff 1:
E|---------------------------------------------------------------|
B|---------------------------------------------------------------|
G|---------------------------------------------------------------|
D|------------------------------------------------------------5/6|
A|-5-5-5-5-5-2-0-2-5--5-5-5-5-2-0-2-5--5-5-5-5-2-0-2-5--5-5-5----|
E|---------------------------------------------------------------|(2x)

Versos:

Riff 2:
E|---------------------------------------------------------------------------------15/16-|
B|-15-15-15-15-15-12--12-15--15-15-15-15-12--12-15--15-15-15-15-12--12-15-15-15-15-------|
G|------------------14---------------------14---------------------14---------------------|
D|---------------------------------------------------------------------------------------|
A|---------------------------------------------------------------------------------------|
E|---------------------------------------------------------------------------------------|

Não pode entrar aqui
Não pode falar
Não pode subir aí
Não pode gritar

Riff 2

Não pode sair daí
Não tem como ser assim
Não pode sentar aqui
Não tem como ser e fim

A
Se não, não
Se sim, talvez não
A
Se não, não
Se sim, talvez, não!

Refrão:

Riff 3:
E|---------------------------------|
B|---------------------------------|
G|---------------------------------|
D|-----5/6-----5/6-----5/6---------|
A|-5-5-----5-5-----5-5-----5-5-5-5-|
E|---------------------------------|

Não pode, não pode, não pode
Não pode, não pode fumar, não pode beber

Riff 3

Não pode, não pode, não pode
Não pode xingar, não pode correr

Versos:

Riff 2

Não pode entrar aqui
Não pode parar
Não pode ficar aí
Não pode passar

Riff 2

Não pode pular daí
Não tem como ser assim
Não pode comer aqui
Não tem como ser e fim
reproducciones 3
Acordes para:
    Composição: Sérgio Britto Colaboración y revision:
    • Rafael Bispo

    0 comentarios

    mostrar más comentarios

    ¿Conseguiste tocar?

    1 tocaron 0 aún no

    ¡Graba un vídeo tocando Não Pode y envianoslo!

    00:00 / 00:00
    outros vídeos desta música
    repetir qualidade Automático
    Outros vídeos desta música
    00:00 / 00:00
    Automático
    OK