Cifra Club

O Amor de Deus

Toinho de Aripibú

Cifrado: Principal (guitarra y guitarra eléctrica)
Selo Cifra Club: esta cifra foi revisada para atender aos critérios oficiais da nossa Equipe de Qualidade.
tono: A
Intro (acordes): E A E A E A E A

Solo de guitarra:
E|---------------------------------------------------------------------------------------------------------|
B|---------------------------------------------------------------------------------------------------------|
G|2--1----1-----------------------------------------------------1-2--1----1--------------------------------|
D|------4-----4-2-------------------------------------------2-4---------4-----4-2-----------------0-----0-2|
A|--------------------------0-2-4-5--4--2-4--2--0-------------------------------------------0-2-4----4-----|
E|---------------------------------------------------------------------------------------------------------|

E|5--4--2-4---2-0----------4-5-7-10--9--7-9---7-5---------------0-5--4--2-4---2-0-----------4-7-12-10-9-7----5|
B|------------------------------------------------------------2-----------------------------------------------|
G|------------------------------------------------------------------------------------------------------------|
D|------------------------------------------------------------------------------------------------------------|
A|------------------------------------------------------------------------------------------------------------|
E|------------------------------------------------------------------------------------------------------------|

           A                                  E    E4 E
Deixou sua Glória e desceu a este mundo tenebroso
           Bm      E7                   A   D E
Para dar vitória a um povo cativo e medroso
             A             A7                     D
E do alto do Gólgota o seu sangue como água derramou
                        A
Morrendo no patíbulo da cruz
                          E
Deus provou por meio de Jesus
    E7                     A   D E
Seu grande e seu infinito amor
         A                             E    E4 E
Quem ama sofre, sofre sem abrir a sua boca
         Bm      E                          A    D E
Quem ama sente a dor de ser pregado em uma cruz
           A          A7                 D
Um outro alguém não teria a coragem de pagar
                            A
O preço que Jesus pagou por mim
                              E
Nenhum anjo, arcanjo ou querubim
   D                     A
Ninguém jamais poderia pagar

          E                                    A
O amor de Deus é bem maior do que este mundo inteiro
                                E           D                  A
A Bíblia diz que Ele me amou primeiro mesmo sendo eu ainda pecador
              E                                         A
Só mesmo quem ama tem a coragem de abraçar quem está na lama
                              E             D                      A
Sem olhar o seu estado de má fama, e o transforma em um cidadão do céu

(repete a intro)

           A                                  E
Deixou sua Glória e desceu a este mundo tenebroso
           Bm      E7                   A   D E
Para dar vitória a um povo cativo e medroso
             A             A7                     D
E do alto do Gólgota o seu sangue como água derramou
                        A
Morrendo no patíbulo da cruz
                          E
Deus provou por meio de Jesus
    D                      A
Seu grande e seu infinito amor
         A                             E
Quem ama sofre, sofre sem abrir a sua boca
         Bm      E                          A    D E
Quem ama sente a dor de ser pregado em uma cruz
           A          A7                 D
Um outro alguém não teria a coragem de pagar
                            A
O preço que Jesus pagou por mim
                              E
Nenhum anjo, arcanjo ou querubim
   D                     A
Ninguém jamais poderia pagar

          E                                    A
O amor de Deus é bem maior do que este mundo inteiro
                                E           D                  A
A Bíblia diz que Ele me amou primeiro mesmo sendo eu ainda pecador
              E                                         A
Só mesmo quem ama tem a coragem de abraçar quem está na lama
                              E             D                      A
Sem olhar o seu estado de má fama, e o transforma em um cidadão do céu

          E                                    A
O amor de Deus é bem maior do que este mundo inteiro
                                E           D                  A
A Bíblia diz que Ele me amou primeiro mesmo sendo eu ainda pecador
              E                                         A
Só mesmo quem ama tem a coragem de abraçar quem está na lama
                              E             D             A7       D    A
Sem olhar o seu estado de má fama, e o transforma em um cidadão do céu
Otros videos de esta canción
    30 exhibiciones
      • ½ Tono
      • A
      • Bb
      • B
      • C
      • Db
      • D
      • Eb
      • E
      • F
      • F#
      • G
      • Ab
    • Agregar a la lista

    Afinação da cifra

    Afinador online

      Ops (: Contenido disponible solo en portugués.
      OK