Cifra Club

Providência

Toinho de Aripibú

Cifrado: Principal (guitarra y guitarra eléctrica)
tono: F
Intro (acordes): A# F C A# F

Solo de guitarra:
E|----------------------------------------------------------1---1-3-5---3-3-----------1---------------------------|
B|------------------------------------1-1-----------------1---1-------------------1-3---1-------------------------|
G|----------------------------------2-----2-----------------------------------------------2---2-0-----------------|
D|0-3---0-3-----------0-3-5-6-5-3-0---------------------------------------------------------------3---0-----------|
A|------------------------------------------------------------------------------------------------------3---0-----|
E|------------------------------------------------------------------------------------------------------------3-1-|

    F
É melhor dobrar os joelhos
                                Gm
E ouvir o conselho que a Bíblia diz
  Gm7M              C
Espera com mais paciência
                               F    A# C
Verás a providência do Justo Juiz
       F
Tu não és uma pessoa qualquer
            F7                 A#
Tu és especial, és um filho de Deus
                  F
E ainda, acima de tudo
                 Gm    C                F      A# C
Não escolheste a Ele, Ele é quem te escolheu

F
Deus vai agir em tua vida
                                    C
E vai abrir a porta que o inimigo fechou
  Gm                 C
E vai preparar um banquete e vai te convidar
                                     F    C
Para mostrar a muitos que você tem valor
F                            F7
Tira da tua cabeça esse pessimismo
                 A#
Abre a boca e dá glória
                         F
Vai à luta, enfrenta o deserto
                Gm   C                  F
Porque no tempo certo Deus vai te dar vitória

Passagem (acordes): A# F C A# F

Solo de guitarra:
E|--------------------------------------------------------1---3---5-----------5---5---3---1-------|
B|--------------------------------------------1---3---1---------------------------------------1---|
G|--------0---------------------------------------------------------------------------------------|
D|0---3-------3-----------------------------------------------------------------------------------|
A|------------------------------------------------------------------------------------------------|
E|------------------------------------------------------------------------------------------------|

E|5-6-8-6-5-3-1-3-5-------3---3---------------8-8-6-5-3-1-0-----------------------------------------------|
B|----------------------------------------------------------3-1-------------------------------------------|
G|--------------------------------------------------------------3-2-0-------------------------------------|
D|--------------------------------------------------------------------3-2-0-------------------------------|
A|----------------------------------------------------------------------------3---3-----------0-----------|
E|------------------------------------------------------------------------------------------------3---1---|

F
Deus está vendo a luta
                                 Gm
Que estás passando dentro do teu lar
     Gm7M              C
Se Penina, mulher de Elcana
                                  F     A# C
Fica afligindo Ana fazendo ela chorar
       F
Quem é Ana tem sabedoria
                F7                      A#
Busca a Deus no templo e em segredo ela ora
                   F
E ainda que o sacerdote
               Gm   C                  F     A# C
Lhe interprete mal, Deus vai lhe dar vitória

F
Deus vai agir em tua vida
                                    C
E vai abrir a porta que o inimigo fechou
  Gm                 C
E vai preparar um banquete e vai te convidar
                                     F    C
Para mostrar a muitos que você tem valor
F                            F7
Tira da tua cabeça esse pessimismo
                 A#
Abre a boca e dá glória
                         F
Vai à luta, enfrenta o deserto
                Gm   C                  F
Porque no tempo certo Deus vai te dar vitória

      A#                 F
Vai à luta, enfrenta o deserto
                Gm   C                  F
Porque no tempo certo Deus vai te dar vitória
      A#                 F
Vai à luta, enfrenta o deserto
                Gm   C                  A# Am Gm F
Porque no tempo certo Deus vai te dar vitória
A|5-3-0-----|
E|------3-1-|
00:00 / 00:00
Otros videos de esta canción
Repetir
Otros videos de esta canción
Compositor no encontrado.
Colaboración y revisión:
  • Joémerson Maia
    • ½ Tono
    • A
    • Bb
    • B
    • C
    • Db
    • D
    • Eb
    • E
    • F
    • F#
    • G
    • Ab
  • Agregar a la lista
    00:00 / 00:00
    OK