Cifra Club

Decisiones Adolescentes

Tolidos

Cifrado: Principal (guitarra y guitarra eléctrica)
tono: A
E|----------------------------| |-------------------------------
B|----------------------------| |-------------------------------
G|---------------6------------| |---------------6---------------
D|-------7-----------7-------7| |-------7----------7------7-----
A|--0-0-----0------------0-----|-7--7-----7----------7---------|
E|-----------------------------|-------------------------------|

E|-------------------------------|-----------------------------|
B|-------------------------------|-----------------------------|
G|-------------------6-----------|-------------6---------------| todo x3
D|------7---------------7-----7--|------7---------7------7-----|
A|-5-5------5--------------5-----|--5-5----5---------5---------|
E|-------------------------------|-----------------------------|

E|--------------------|-----------------|------------------|
B|--------------------|-----------------|------------------|
G|-------9-------9-7--|----9--------9-6-|---9------9-9----7|
D|--7-7-----7-7-------|--7---7-7--------|-7---7-7-------7--|
A|--------------------|-----------------|------------------|
E|--------------------|-----------------|------------------|

E|-----------------|
B|-----------------| x2 con lo de arriba!!
G|--6----7----6----|
|7----7----7----7-
A|-----------------|
E|-----------------|

E|------------------| |-----------------|------------------------
B|------------------| |-----------------|-------------------------
G|--4-4-4-4-4-4-4h6-| |-4-4-4-4-4-4-4h6-|-6-6-6-6-6-6-6h7---------
D|--7| —7-7-7-7-7-7---x2 |-6-6-6-6-6-6-6---|-7-7-7-7-7-7-7----------
A|--0-0-0-0-0-0-0---| |-7-7-7-7-7-7-7---|-0-0-0-0-0-0-0----------
E|------------------| |-----------------|-------------------------

E|-------|-----|------|-------|----------------|
B|-------|-----|------|-------|----------------|
G|-7-----|-4---|-4----|--6----|-7------------------|
D|-7-x7--|-7-x7|-6-x7-|--7-x7-|-7-x7----------|
A|-5-----|-0---|-7----|--0----|-5-------------------|
E|-------|-----|------|-------|---------------|
00:00 / 00:00
Otros videos de esta canción
Repetir
Otros videos de esta canción
Composición de Tolidos
3 vistas
    • ½ Tono
    • A
    • Bb
    • B
    • C
    • Db
    • D
    • Eb
    • E
    • F
    • F#
    • G
    • Ab
  • Agregar a la lista

    0 comentarios

    Ver todos los comentarios

    ¿Lograste tocar?

    0 Tocaron 0 Aún no

    ¡Graba un video tocando Decisiones Adolescentes y envíanoslo!

    00:00 / 00:00
    OK