Cifra Club

Hasta Hoy

Tolidos

Cifrado: Principal (guitarra y guitarra eléctrica)
tono: C#m
Intro

E|----------------------------------|
B|----------------------------------|
G|-6-6-6-6--------------------------|
D|-6-6-6-6--7-7-7---2---------------|
A|-4-4-4-4--7-7-7---2---------------|
E|----------5-5-5---0---------------|

E|----------------------------------|
B|----------------------------------|
G|-6-6-6-6--------------------------|
D|-6-6-6-6--------------------------|
A|-4-4-4-4---0-2-4-2----------------|
E|----------------------------------|

E|----------------------------------|
B|----------------------------------|
G|-6-6-6-6------------------4-------|
D|-6-6-6-6--7-7-7---2-------4-------|
A|-4-4-4-4--7-7-7---2-------2-------|
E|----------5-5-5---0---------------|

Hasta hoy...

E|------------|
B|------------|
G|-6----------|
D|-6--6--7---2|
A|-4--6--7---2|
E|----4--5---0|

Que todo…

E|----------------------|
B|----------------------|
G|-4--6-----------------|
D|-4--6--6--7-7---------|
A|-2--4--6--7-7---------|
E|-------4--5-5---------|

Fue hoy…

E|------------|
B|------------|
G|-6----------|
D|-6--6--7---2|
A|-4--6--7---2|
E|----4--5---0|

Que fue de lo nuestro

E|----------------------|
B|----------------------|
G|-4-4-4-4-4--6---------|
D|-4-4-4-4-4--6-7-------|
A|-2-2-2-2-2--4-7-------|
E|--------------5-------|


La última vez... Yo pensé que tu...

E|-----------------------|
B|-----------------------|
G|--4-----6--------------|
D|--4-----6------7-------| x2  Aquí es cuestión de oír los cambios
A|--2-----4------7-------|
E|---------------5-------|
PM………………………………………………………


        C#                A
Para que seguir si tú quieres huir...

        G#   A      B
E intentas ir contra de todo...




*DESPUÉS D PITE A  PRIMERA ESTROF 



*SE D PITE EL INTRO



No pensaste antes de hablar...

E|-----------------------|
B|-----------------------|
G|--4-----6--------------|
D|--4-----6------7-------| x2
A|--2-----4------7-------|
E|---------------5-------|
PM………………………………………………………

        C#                A
Para que seguir si tú quieres huir...

        G#   A      B
E intentas ir contra de todo...




SE D PITE OTRA VEZ A  PRIMERA ESTROF 


No sabes lo que tienes...
Hasta que esta perdido...
Nunca lo entenderás...     : Se repiten los mismos acordes
Y ha sido lo mejor...
Fue lo mejor de los dos.




E|------------------------------------|
B|------------------------------------|
G|-------------------2-2-2-2--4-4-4-4-|
D|-6-6-6-6--7-7-7-7--4-4-4-4--6-6-6-6-| Se repite varias veces
A|-6-6-6-6--7-7-7-7--4-4-4-4--6-6-6-6-|
E|-4-4-4-4--5-5-5-5-------------------|

PM………………………………………………………

       G#         A                 B           C#
Y durará por siempre...

       G#         A                 B           C#
Y durará por siempre...

       G#         A                 B           C#
Y durará por siempre...

       G#         A                 B           C#
Y durará por siempre...







SE D PITE OTRA VEZ A  PRIMERA ESTROF 



No sabes lo que tienes...
Hasta que esta perdido...
Nunca lo entenderás...   : Se repiten los mismos acordes
00:00 / 00:00
Otros videos de esta canción
Repetir
Otros videos de esta canción
Composición de Tolidos
    • ½ Tono
    • Am
    • Bbm
    • Bm
    • Cm
    • C#m
    • Dm
    • Ebm
    • Em
    • Fm
    • F#m
    • Gm
    • G#m
  • Agregar a la lista

    0 comentarios

    Ver todos los comentarios

    ¿Lograste tocar?

    0 Tocaron 0 Aún no

    ¡Graba un video tocando Hasta Hoy y envíanoslo!

    00:00 / 00:00
    OK