Cifra Club

Hoy

Tolidos

Cifrado: Principal (guitarra y guitarra eléctrica)
tono: Cm
E|----------------------------------------------| I
B|----------------------------------------------| I
G|----------------8-10-12-13---*8-*10-----------| I
D|----8-6-5-6-5-6-x-x--x--x----*x-*x------------| I
A|----------------6-8--10-11---*6-*8------------| I
E|----------------------------------------------| I

luego va

E|----------------------------------------------| I
B|----------------------------------------------| I
G|-----------------------8-10-12-13-------------| I aqui solo es cuestion
D|------------6-5-6-8-6--x-x--x--x--------------| I que pongan mucho oido
A|----6-5-8-6------------6-8--10-11-------------| I
E|----------------------------------------------| I

de esto sigue un break

E|----------------------------------------------| I
B|----------------------------------------------| I
G|----13---12-10-8------------------------------| I
D|----x----x--x--x------------------------------| I
A|----11..-10-8--6------------------------------| I
E|----------------------------------------------| I

luego van los acordes en el verso que son
verso 1
     Aunque me veas asi yo soy feliz
E|----------------------------------------------| I
B|----------------------------------------------| I
G|--------------------------8-------------------| I
D|---5--------6-------------8-------------------| I
A|---5--------6-------------6-----5-6-5-6-------| I
E|---3--------4---------------------------------| I

luego:
     no me impórta lo que pienses
E|----------------------------------------------| I
B|-----------------------------------4--4-------| I
G|---------------------------5-----5--5---------| I
D|---5---------6-------------5----5-------------| I
A|---5---------6-------------3---3--------------| I
E|---3---------4--------------------------------| I

asi es los versos de la cancion solo se tocan esos riffs
en el coro va asi

   Que nadie puede ver por lo que estoy pasando
E|------------------------------------------------| I
B|------------------------------------------------| I
G|-----------------------8----------------5-------| I
D|--5--------6-----------8----------------5-------| I
A|--5--------6-----------6----------------3-------| I
E|--3--------4------------------------------------| I

   Deberia alguien comprender
E|-----------------------------------------------| I
B|-----------------------------------------------| I
G|--------------------------5--------------------| I
D|--5--------6--------------5--------------------| I
A|--5--------6--------------3--------------------| I
E|--3--------4-----------------------------------| I

asi luego va... solo sigue el ritmo de la rola

E|----------------------------------------------| I
B|----------------------------------------------| I
G|---5-5-5--------------------------------------| I x 2
D|---5-5-5--5-5-5--6-6-6--5-5-5-----------------| I
A|---3-3-3--5-5-5--6-6-6--5-5-5-----------------| I
E|----------3-3-3--4-4-4--3-3-3-----------------| I

E|----------------------------------------------| I
B|----------------------------------------------| I
G|---5-5---7-7-8-8-7-7--------------------------| I
D|---5-5---7-7-8-8-7-7--------------------------| I
A|---3-3---5-5-6-6-5-5--------------------------| I
E|----------------------------------------------| I

E|----------------------------------------------| I
B|----------------------------------------------| I
G|---5-5---7-7-7-8-8-8--8-10--------------------| I
D|---5-5---7-7-7-8-8-8--8-10--------------------| I
A|---3-3---5-5-5-6-6-6--6-8---------------------| I
E|----------------------------------------------| I

luego se repite lo del 'verso 1' para el verso 2
y el coro es lo mismo nada mas cambia el ritmo
en donde dice:

  'que nadie pueder ver mi soledad no se que hacer'
E|------------------------------------------------| I
B|------------------------------------------------| I
G|-----------------------8----------------5-------| I
D|--5--------6-----------8----------------5-------| I
A|--5--------6-----------6----------------3-------| I
E|--3--------4------------------------------------| I


...el pre final es

E|----------------------------------------------------------| I
B|----------------------------------------------------------| I
G|---------------------------------------------------8------| I
D|----6666--8888--101010101010----6666-6-5-6-8-6-5---8------| I
A|----6666--8888--101010101010----6666-6-5-6-8-6-5---6------| I
E|----4444--6666--8-8-8-8-8-8-----4444-4-3-4-6-4-3----------| I

luego va solo de bajo x 4 tiempos
luego otros con la guitarra esto es...

E|----------------------------------------------| I
B|----------------------------------------------| I
G|---5-5-5--------------------------------------| I
D|---5-5-5--5-5-5--6-6-6--5-5-5-----------------| I
A|---3-3-3--5-5-5--6-6-6--5-5-5-----------------| I
E|----------3-3-3--4-4-4--3-3-3-----------------| I

para terminar con...

E|----------------------------------------------| I
B|----------------------------------------------| I
G|---5-5---7-7-8-8-7-7--------------------------| I x 2
D|---5-5---7-7-8-8-7-7--------------------------| I
A|---3-3---5-5-6-6-5-5--------------------------| I
E|----------------------------------------------| I

E|----------------------------------------------| I
B|----------------------------------------------| I
G|--1212-1010-8-8-7-7-8888-10101010-12----------| I
D|--1212-1010-8-8-7-7-8888-10101010-12----------| I
A|--1010-8-8--6-6-5-5-6666-8-8-8-8--10----------| I
E|----------------------------------------------| I
00:00 / 00:00
Otros videos de esta canción
Repetir
Otros videos de esta canción
Composición de Tolidos
3 vistas
    • ½ Tono
    • Am
    • Bbm
    • Bm
    • Cm
    • C#m
    • Dm
    • Ebm
    • Em
    • Fm
    • F#m
    • Gm
    • G#m
  • Agregar a la lista

    0 comentarios

    Ver todos los comentarios

    ¿Lograste tocar?

    0 Tocaron 0 Aún no

    ¡Graba un video tocando Hoy y envíanoslo!

    00:00 / 00:00
    OK