Cifra Club

Verano

Tolidos

Cifrado: Principal (guitarra y guitarra eléctrica)
tono: Em
INTRO
E RO TUS OJOS Y ES TAN MAGICO ......
GUITARRA I (LIMPIO)
E|------2---------0---------2--------2--------------------| I
B|----2---2-----0---0-----3---3----3---3------------------| I
G|--4---------0---------4--------2-------2----------------| I
D|--------------------------------------------------------| I    X 2
A|----------------------2--------0------------------------| I
E|-3----------0-------------------------------------------| I

SALES DE TU CASA SON A S 10.........

PARTE 2 (DISTOR) SEGUIR EL RITMO DE A  BATERIA
E|--------------------------------------------------------| I
B|--------------------------------------------------------| I
G|--------------------4-444-4-444-5-555-5-555-5-555-------| I
D|--5-555-5-555-5-555-4-444-4-444-5-555-5-555-5-555-------| I   X 2
A|--5-555-5-555-5-555-2-222-2-222-3-333-3-333-3-333-------| I
E|--3-333-3-333-3-333-------------------------------------| I
PM     ...   ...   ...   ...   ...   ...   ...   ...
GUITARRA 2 (LIMPIO) SE TOCA LENTO

E|-------2--------0--2---2----------2-------| I---3--2----2--0-2--I
B|---------3--------0--3---3-----3----3-----| I------------3--0-3-I
G|-----------------------------2---------2--| I-------------------I X 1
D|------------------------------------------| I-------------------I
A|------------------------------------------| I-------------------I
E|------------------------------------------| I-------------------I
PARTE 2
E|-3--3---2---3-2-------0-----3---2---3----3-2------0-----------| I
B|--3--3---3------3-------0-----3---3---3------3------0---------| I
G|--------------------------------------------------------------| I
D|--------------------------------------------------------------| I  X 1
A|--------------------------------------------------------------| I
E|--------------------------------------------------------------| I

VERSO 1
GUITARRA 1 (DISTOR) SEGUIR EL RITMO DE A  BATERIA
QUIBE RA PODER.....

E|--------------------------------------------------------------| I
B|--------------------------------------------------------------| I
GUITARRA 2 (DISTOR)
E|--------------------------------------------------------------| I
B|--------------------------------------------------------------| I

PDC ORO
GUITARRA 1 (DISTOR) * USAR UN PEDAL WAH Y/O TDM OLO.
Y TAL VEZ ESTO PUEDA FUNCIONAR....

E|---------------------------------------------------------------| I
B|---------------------------------------------------------------| I
G|-----X5------X5------X5------X5------X5------5------5------5---| I
D|-X5--X5--X2--X5--X5--X5--X2--X5--X5--X5--X2--5--X5--5--X2--5---| I
A|-X5--X3--X2--X3--X5--X3--X2--X3--X5--X3--X2--3--X5--3--X2--3---| I
E|-X3------X0------X3------X0------X3------X0-----X3-----X0------| I
WAH O TDM OLO                                   *      *      *

GUITARRA 2 (DISTOR)
E|------------------------------------| I
B|------------------------------------| I
G|------5-5-------5-5-----------------| I X 4
D|-5-5--5-5--2-2--5-5-----------------| I
A|-5-5--3-3--2-2--3-3-----------------| I
E|-5-5-------2-2----------------------| I

CORO
PRONTO TE VAS Y NO VOLVERAS
GUITARRA 1 (DISTOR)
E|-----------------------------------------------------------------| I
B|-----------------------------------------------------------------| I

GUITARRA 2 (DISTOR)
E|-----------------------------------------------------------------| I
B|-----------------------------------------------------------------| I

FIN DEL CORO
GUITARRA 1 (DISTOR)
B  ESTAS CONEG O NO HAY MAS....

E|-----------------------------------------------------------------| I
B|-----------------------------------------------------------------| I
G I-----------------------------------------------------------------I

GUITARRA 2(DISTOR)
E|-----------------------------------------------------------------| I
B|-----------------------------------------------------------------| I

E NIG  O
E|-7P5-3-2-33---7P5-3-2-33--5-7P5-3-2-33-5-7P5-3-2-33-5-7-3--| I
B|-----------------------------------------------------------| I
G|-----------------------------------------------------------| I
D|-----------------------------------------------------------| I
A|-----------------------------------------------------------| I
E|-----------------------------------------------------------| I

GUITARRA 2 (DISTOR) (ACAMPAÑA AL E NIG  O)
E|-----------------------------------------------------------| I
B|-----------------------------------------------------------| I

PURO BAJO
TAL VEZ NO HICISTE NADA...

GUITARRA 1
NO TOKA NADA

GUITARRA 2 LIMPIO
DARME AA S NO....

E|-2---2--3--3--2--2--0--0----| I------2-2-3-3-2-2-3-3-2-2-3-3-2-2-0-0I
B|--3---3--3--3---3--3--0--0--| I-------3-3-3-3-3-3-3-3-3-3-3-3-3-3---I
G|----------------------------| I X 2  -------------------------------I X2
D|----------------------------| I-------------------------------------I
A|----------------------------| I-------------------------------------I
E|----------------------------| I-------------------------------------I
                                        EN A  2DA VEZ EN VEZ DE TERE NAR
E|-0-0-| TERE NA -3-
D PETIR CORO
PRONTO TE IRAS NO  VOLVERAS ......

G  O (DISTOR)
GUITARRA 1

E|--------------------------------------------------------| I
B|--------------------------------------------------------| I
G|--------------------------------------------------------| I
D|-4-5-4------4-5--4-5-4-------------4/5------------------| I
A|-------7--7------------7-5--7-7-7-----------------------| I
E|--------------------------------------------------------| I

E|-------------------------------------------------------------| I
B|-------------------------------------------------------------| I
G|-4------5----4------7-------4| H5P4--4H5 4H5 4H54H5 4H5---****-I
D|----5------5-----5------5------------------------------------| I
A|-------------------------------------------------------------| I
E|-------------------------------------------------------------| I

GUITARRA 2(DISTOR)
E|--------------------------------------------------------| I
B|--------------------------------------------------------| I


D PETIR CORO
PRONTO TE IRAS Y NO VOLVERAS.....

INTERLUDIO
GUITARRA 1 (UNA ESPECIE DE FA NGER, DISTOR Y CON MUY POCO VOLUMEN,
EL SLIDE ES LENTO)
E|-------------------------------------------------------------| I
B|-------------------------------------------------------------| I
G|-------------------------------------------------------------| I
D|-------55/3-55/9-------55/3/3----55/9/5----------------------| I
A|-------33/1-33/7-------33/1/5----33/7/3----------------------| I
E|-------------------------------------------------------------| I

GUITARRA 2
E|--------------------------------------------------------------| I
B|--------------------------------------------------------------| I
G I--------------------------------------------------------------I
D I-5-5--------------5-5-----------------------------------------I
A I-5-5--------------5-5----------****** DESLIZE DE PULIMLA----- I
D I-5-5--------------5-5-----------------------------------------I
PM  . .              . .

E|--------------------------------------------------------------| I
B|--------------------------------------------------------------| I
G I--------------------------------------------------------------I
D I--5-----------------------------------------------------------I
A I--5---ACOMPAÑA UNA VEZ AL BAJO---****** DESLIZE DE PLUE LA--- I
D I--5-----------------------------------------------------------I
PM   .

OUTRO
EL VERANO PASA....
GUITARRA 1 (DISTOR CON PEDAL WAH)
E|--------------------------------------------------------------| I
B|--------------------------------------------------------------| I
G I-----5------5------5------5------5------5------5------5-------I
D I-55--5--55--5--55--5--55--5--55--5--55--5--55--5--55--5--55---I
A I-55--3--55--3--55--3--55--3--55--3--55--3--55--3--55--3--55---I
E I-33-----33-----33-----33-----33-----33-----33-----33-----33---I
WAH     *      *      *      *      *      *      *      *  PM

GUITARRA 2 (DISTOR)
E|--------------------------------------------------------------| I
B|--------------------------------------------------------------| I
G I----55----55-----55----55----55----55----55----55-------------I
D I-55-55-55-55--55-55-55-55-55-55-55-55-55-55-55-55-55----------I
A I-55-33-55-33--55-33-55-33-55-33-55-33-55-33-55-33-55----------I
D I-55----55-----55----55----55----55----55----55----55----------I
PM                                                   ..

Y ESTO ES TOC  ME LLEVO MUCHO TIEMPO TRANSCRIBIRA , TENER QUE SACAR
UNA GUITARRA Y DESPUES A  OTRA, AB  QUE ESPERO QUE LES GUSTE.
LES PONGO A  LETRA ABAJO. DUDAS CORDCC IONES, COMENTARIOS,


Miro tus ojos y es tan mágico
esta noche de fiesta,
estar tan cerca es algo trágico
y tu no te das cuenta.

Sales de tu casa y son las diez
te espera un mundo allá fuera
cruzan las miradas otra vez
ojala estuvieras mas cerca.

Quisiera poderte verte mas
qué tantas cosas quisiera
quisiera poderte decir mas
regreso a mis maneras

Y tal vez esto pueda funcionar,
tan solo déjate llevar,
tal vez no me vaya a equivocar,
que tu respuesta no sea,
que pronto te vas y no volveras
y el verano no pasa rapido
sin tu amor.

Si estas conmigo no hay mas
y el verano pasa rápido  UOO UOO,
Y tal vez no hiciste nada
por darme alas, no
o tal vez pensé: solo ,eso fue
sin embargo me queda
poder estrecharte una vez mas
tan solo un par de palabras
poder decir lo que hay en mi
pedir que no te vayas
que pronto te iras
y no volveras
y el verano pasa lento
sin tu amor
Siiiin tu amoorrr uooor.

Y pronto te iras  y no volveras
(El verano pasaaa)
Y pronto te iras  y no volveras
(El verano pasaaa)
Y pronto te iras  y no volveras
(El verano pasaaa)

El verano pasa
El verano pasa
El verano pasa
El verano pasa
El verano pasa
El verano pasa
El verano pasaaaaa
00:00 / 00:00
Otros videos de esta canción
Repetir
Otros videos de esta canción
Composición de Tolidos
    • ½ Tono
    • Am
    • Bbm
    • Bm
    • Cm
    • C#m
    • Dm
    • Ebm
    • Em
    • Fm
    • F#m
    • Gm
    • G#m
  • Agregar a la lista

    0 comentarios

    Ver todos los comentarios

    ¿Lograste tocar?

    0 Tocaron 0 Aún no

    ¡Graba un video tocando Verano y envíanoslo!

    00:00 / 00:00
    OK