Cifra Club

An Endless Summer

Tom DeLonge

Cifrado: Principal (guitarra y guitarra eléctrica)
tono: B
Intro: 0'36"s

Guitarra 1 
E|-------------------------------------------------------------------------  |
B|-0-7~-0-5-0-4-0-2~-0-5~-0-4-0-2-0-0~-0-7~-0-5-0-4-0-2~-0-5~-0-4-0-2-0-0~-  |
G|-------------------------------------------------------------------------  |
D|-------------------------------------------------------------------------  |
A|-------------------------------------------------------------------------  |
E|-------------------------------------------------------------------------  |
                                                                             |
Guitarra 2                                                                     (2x)
E|-------------------------------------------------------------------------  |
B|-------------------------------------------------------------------------  |
G|-4*----------------------------------------------------------------------  |
D|-4*-(DEIXE SOAR)---------------------------------------------------------  |
A|-2*----------------------------------------------------------------------  |
E|-------------------------------------------------------------------------  |

Verso:                                                                   
E|-----------------------  |
B|-----------------------  |
G|-4~~-------------------  |
D|-4~~--2-x-x-4~~--2-x-x-  | (4x)
A|-2~~--2-x-x-4~~--2-x-x-  |
E|------0-x-x-2~~--0-x-x-  |

Pré-Refrão:

Guitarra 1 (riff)
E|-------------------------------------------------------  |
B|-------------------------------------------------------  |
G|-------------1--------------------------1--------------  |
D|---4--4-4--4---2-2--2-2-1-4---4--4-4--4---2-2--2-2-1-4-  |
A|-2--------------------------2--------------------------  |
E|-------------------------------------------------------  |
                                                           |
Guitarra 2 (base)                                                  
E|-------------------------------------------------------  |
B|-------------------------------------------------------  |
G|-4*----------------------------------------------------  |
D|-4*--(DEIXE SOAR)--------------------------------------  |
A|-2*----------------------------------------------------  |
E|-------------------------------------------------------  |

Refrão:

Guitarra 1 (riff)
E|------------------------------------------------------  |
B|------------------------------------------------------  |
G|-4-x-6-x-8--8-8-8-8-8-8-6-x-4-x-16--16-16-16-16-16-16-  |
D|-x-x-x-x-x--x-x-x-x-x-x-x-x-x-x--x---x--x--x--x--x--x-  |
A|-2-x-4-x-6--6-6-6-6-6-6-4-x-2-x-14--14-14-14-14-14-14-  |
E|------------------------------------------------------  |
                                                          |
Guitarra 2 (base)                                            (4x)
E|------------------------------------------------------  |
B|------------------------------------------------------  |
G|-4-x-6-x-8--8-8-8-8-8-8-----8-x--9---9--9--9--9--9--9-  |
D|-4-x-6-x-8--8-8-8-8-8-8-2-x-8-x--9---9--9--9--9--9--9-  |
A|-2-x-4-x-6--6-6-6-6-6-6-2-x-6-x--7---7--7--7--7--7--9-  |
E|------------------------0-x---------------------------  |

00:00 / 00:00
Otros videos de esta canción
Repetir
Otros videos de esta canción
Composición de Tom DeLonge
Colaboración y revisión:
  • Renan Luiz
10 vistas
    • ½ Tono
    • A
    • Bb
    • B
    • C
    • Db
    • D
    • Eb
    • E
    • F
    • F#
    • G
    • Ab
  • Agregar a la lista

    0 comentarios

    Ver todos los comentarios

    ¿Lograste tocar?

    1 Tocaron 0 Aún no

    ¡Graba un video tocando An Endless Summer y envíanoslo!

    00:00 / 00:00
    OK