Cifra Club

Mary Jane's Last Dance

Tom Petty

Tablatura: Principal (guitarra)
tono: G
Intro: Am G D Am

Am               G           D           Am
-0---0-x-x-x-x-x-------------2-x-x-x-x-x-0-------------
-0h1-1-x-x-x-x-x-3-x-x-x-x-x-3-x-x-x-x-x-1-------------
-0h2-2-x-x-x-x-x-0-x-x-x-x-x-2-x-x-x-x-x-2-------------
-0h2-2-x-x-x-x-x-0-x-x-x-x-x-0-x-x-x-x-x-2-------------
-0---------------2-x-x-x-x-x---------------------------
-------------------------------------------------------

-0---3-x-x-x-x-x-------------2-x-x-x-x-x-0-------------
-0h1-1-x-x-x-x-x-3-x-x-x-x-x-3-x-x-x-x-x-1-------------
-2---2-x-x-x-x-x-0-x-x-x-x-x-2-x-x-x-x-x-2-------------
-2---2-x-x-x-x-x-0-x-x-x-x-x-0-x-x-x-x-x-2-------------
-----------------2-x-x-x-x-x---------------------------
-------------------------------------------------------

-0---0---x-x-x-x-x---------------2h3-x-x-x-x-x-0-------
-0h1-1p0-x-x-x-x-x-3---x-x-x-x-x-3---x-x-x-x-x-1-------
-2---2---x-x-x-x-x-0---x-x-x-x-x-2---x-x-x-x-x-2-------
-2---2---x-x-x-x-x-0---x-x-x-x-x-0---x-x-x-x-x-2-------
-------------------2p0-x-x-x-x-x-----------------------
-------------------------------------------------------


Am                G    
She grew up in an Indiana town
      D                     Am
Had a good lookin' mama who never was around
       Am                    G
But she grew up tall and she grew up right
          D                  Am
With them Indiana boys on an Indiana night


(Am G D Am)
Well she moved down here at the age of 18
She blew the boys away, it was more than they'd seen
I was introduced and we both started groovin'
She said, "I dig you baby but I got to keep movin'"
...on, keep movin' on


Refrão:

Em7                  
Last dance with Mary Jane
                                A
One more time to kill the pain
Em7  
I feel summer creepin' in and I'm
                          A
Tired of this town again 


(Am G D Am)
Well I don't know but I've been told
You never slow down, you never grow old
I'm tired of screwing up, I'm tired of bein' down
I'm tire of myself, I'm tired of this town
Oh my my, oh hell yes
Honey put on that party dress
Buy me a drink, sing me a song,
Take me as I come 'cause I can't stay long


Repete o Refrão


(Am G D Am)
There's pidgeons down in Market Square
She's standin' in her underwear
Lookin' down from a hotel room
Nightfall will be comin' soon
Oh my my, oh hell yes
You've got to put on that party dress
It was too cold to cry when I woke up alone
I hit the last number, I walked to the road   


Repete o Refrão
Composição de Tom Petty
Colaboración y revision:
  • Lucas Ribeiro
1.281 reproducciones
  • Simplificar cifra
    • ½ Tono
    • A
    • Bb
    • B
    • C
    • Db
    • D
    • Eb
    • E
    • F
    • F#
    • G
    • Ab
  • Adicionar à lista

    0 comentarios

    Ver todos os comentários
    00:00 / 00:00
    outros vídeos desta música
    repetir qualidade Automático
    Outros vídeos desta música
    00:00 / 00:00
    Automático
    OK