Cifra Club

Cuida de Mim

Tomate

Acordes: Principal
reproducciones 326
Tono: A
(intro 2x)  A  E  F#m  D
(riff 1)

E|-5h7-5--5h7-4-------------------|
B|-5h7-5--5h7-5--5h7--------------|
G|------------------6-6-6-7-6-2---|
D|--------------------------------|
A|--------------------------------|
E|--------------------------------|


A
Foi o seu amor que me deixou tão bobo
E
Os seus carinhos preciso de novo
F#m
Vem eu quero te beijar,
D
Te levar pro céu
A
Sem o teu calor estou ficando louco
E
Procuro sempre um jeito de esquecer um pouco
F#m                          D
Vem eu quero te beijar, te amar, te amar

A                E
Linda, cuida de mim
           F#m                            (riff 1)
Só me faz rir
           D           A  E  F#m  D
Meu coração entrego a ti

Solo:

E|----------12-------------------12--------------------------------------------|
B|-1412-10----14-14--14-12-10-9-----------------------------------------------|
G|----------------------------------9--13h14-13-11-9-11--11-14-119------------|
D|------------------------------------------------------------------11-9h7-7-7-|
A|-----------------------------------------------------------------------------|
E|-----------------------------------------------------------------------------|


E|17-17-17-16-16-16-14-14-14-12-12-----------12-12---5-5--5-5--14-12-10/12-9---|
B|--------------------------------14-12-10-12--------7-7--7-7--15-14-12/14-10--|
G|---------------------------------------------------6-6--6-6------------------|
D|-----------------------------------------------------------------------------|
A|-----------------------------------------------------------------------------|
E|-----------------------------------------------------------------------------|

[t/ab#inicio]
A
Não suporto mais viver sem você
E
Esse vazio assombra e me faz sofrer
F#m                             D              B
Venha me livrar da dor com seu amor, amor, amor

A
Nesse despespero que me invade fiz essa canção
E
Pra expressar o meu coração
F#m                  D                 B
Te provando o meu amor, amor, amor, amor

A                 E
Linda, cuida de mim
           F#m                         (riff 1)
Só me faz rir
           D  Dm        A
Meu coração entrego a ti   (2x)
Acordes para:

    0 comentarios

      mostrar mas comentarios

      ¿Conseguiste tocar?

      59tocaron0aún no

      ¡Grave un vídeo tocando Cuida de Mim y envie para nosotros!

      00:00 / 00:00
      outros vídeos desta música
      repetirqualidadeautomática
      Outro vídeos desta música
        00:00 / 00:00
        automática
        OK