Cifra Club

Uno Mas Cerveza

Tommy Alverson

Cifrado: Principal (guitarra y guitarra eléctrica)
Selo Cifra Club: esta cifra foi revisada para atender aos critérios oficiais da nossa Equipe de Qualidade.
tono: D
E|-------------------------------------------------------------------------------|
B|-------------------------------------------------------------------------------|
G|---44444---1/2--2----------------0-2-4-2-0---0---------------------------------|
D|-----------------4--4/5-------0------------4-----------------------------------|
A|-------------------------------------------------------------------------------|
E|-------------------------------------------------------------------------------|

at the end of song play above 2x then play this and retard toward the end
E|---------------------------------3-5-7--5---3-------3^^^^^^^-------------------|
B|--------------------------------3---------------7------------------------------|
G|-----44444---1/2--2------------------------------------------------------------|
D|---------------------4| ?4/5-----------------------------------------------------|
A|-------------------------------------------------------------------------------|
E|-------------------------------------------------------------------------------|
Otros videos de esta canción
    2 exhibiciones
      • ½ Tono
      • A
      • Bb
      • B
      • C
      • Db
      • D
      • Eb
      • E
      • F
      • F#
      • G
      • Ab
    • Agregar a la lista

    Afinação da cifra

    Afinador online

      Ops (: Contenido disponible solo en portugués.
      OK