Cifra Club

Nada Abalará a Minha Fé

Ton Carfi

Cifrado: Principal (guitarra y guitarra eléctrica)
tono: Ab
Intro:
          Cm7/4
E|---------------------------|
B|------------6---------6----|
G|-----8---------8-----------|
D|---8--------------8--------|
A|---------------------------|
E|-8------8------------------|
          Gm7/4
E|---------------------------|
B|------------1---------1----|
G|-----3---------3-----------|
D|---3--------------3--------|
A|---------------------------|
E|-3------3------------------|
          Fm7
E|---------------------------|
B|------------1---------1----|
G|-----1---------1-----------|
D|---1--------------1--------|
A|---------------------------|
E|-1------1------------------|
          Gm7/4
E|---------------------------|
B|------------1---------1----|
G|-----3---------3-----------|
D|---3--------------3--------|
A|---------------------------|
E|-3------3------------------|

Cm7/4         Gm7/4            Fm7          Gm7/4
O inimigo quer me destruir tentando me derrotar
Cm7/4         Gm7/4            Fm7          Gm7/4
Mostrando várias ilusões ou coisas vãs
Cm7/4         Gm7/4            Fm7          Gm7/4
Tentando me persuadir me levar para o chão
Cm7/4         Gm7/4            Fm7          Gm7/4
Ele é como um animal feroz preste a atacar

Cm7/4         Gm7/4            Fm7          Gm7/4
Mas estou firme eu fui comprado pelo sangue de Jesus
Cm7/4         Gm7/4            Fm7          Gm7/4
Foi perdoado os meus pecados com sua morte lá na cruz

Cm7/4         Gm7/4            Fm7          Gm7/4
Nada abalará a minha fé pois creio em Jesus
Cm7/4         Gm7/4            Fm7          Gm7/4
Seu sangue Perdeu na cruz por mim
Cm7/4         Gm7/4            Fm7          Gm7/4
Liberto agora estou pelas mãos do meu Jesus
Cm7/4         Gm7/4            Fm7          Gm7/4
Não vivo mais cativo e nem oprimido
Cm7/4         Gm7/4            Fm7          Gm7/4
Livre do inferno estou

Cm7/4         Gm7/4            Fm7          Gm7/4
Revestido agora estou com as armas espirituais
Cm7/4         Gm7/4            Fm7          Gm7/4
Que Deus me entregou para lutar
Cm7/4         Gm7/4            Fm7          Gm7/4
Estratégias de um vencedor, de um time campeão
Cm7/4         Gm7/4            Fm7          Gm7/4
Que entra na batalha só para vencer

Cm7/4         Gm7/4            Fm7          Gm7/4
Mas estou firme eu fui comprado pelo sangue de Jesus
Cm7/4         Gm7/4            Fm7          Gm7/4
Foi perdoado os meus pecados com sua morte lá na cruz

Cm7/4         Gm7/4            Fm7          Gm7/4
Nada abalará a minha fé pois creio em Jesus
Cm7/4         Gm7/4            Fm7          Gm7/4
Seu sangue Perdeu na cruz por mim
Cm7/4         Gm7/4            Fm7          Gm7/4
Liberto agora estou pelas mãos do meu Jesus
Cm7/4         Gm7/4            Fm7          Gm7/4
Não vivo mais cativo e nem oprimido
Cm7/4         Gm7/4            Fm7          Gm7/4
Livre do inferno estou
00:00 / 00:00
Otros videos de esta canción
Repetir
Otros videos de esta canción
Compositor no encontrado.
Colaboración y revisión:
  • william magno
44 vistas
    • ½ Tono
    • A
    • Bb
    • B
    • C
    • Db
    • D
    • Eb
    • E
    • F
    • F#
    • G
    • Ab
  • Agregar a la lista

    0 comentarios

    Ver todos los comentarios
    00:00 / 00:00
    OK