Cifra Club

Resolve

Tonic

Cifrado: Principal (guitarra y guitarra eléctrica)
Selo Cifra Club: esta cifra foi revisada para atender aos critérios oficiais da nossa Equipe de Qualidade.
tono: C
E|------| F----F2----Am----C-----G-----F/C----F3------|

E|-----0-----0----0-----3-----3-----0-------0------|
B|-----1-----3----1-----1-----0-----1-------1------|
G|-----0-----0----2-----0-----0-----0-------2------|
D|-----3-----3----2-----2-----0-----3-------3------|
A|----------------0-----3-----2-----3-------3------|
E|----------------------------3-------------1------|



[Intro]
E|------| F-----F2-----------F----F2------|

E|-----0-----3------------0-----3------|
B|-----1-----1------------1-----1------|
G|-----0-----0------------0-----0------|
D|--3--3-----3----------3-3-----3------|
A|-------------------------------------|
E|-------------------------------------|


PIANO BIT

E|--------15--14-----------|
B|-----15---------12-------|
G|-------------------------|
D|-------------------------|
A|-------------------------|
E|-------------------------|



I wait for this   just like I should
E|------| F-----F2------------G----Am--------------|

E|-----0-----3-------------3-------0------------|
B|-----1-----1-------------0---0-/-1------------|
G|-----0-----0-------------0---0-/-2------------|
D|---3-3-----3-------------0---0-/-2------------|
A|-------------------------2-------0------------|
E|-------------------------3--------------------|



It's what I miss it's what is good
E|------| F-----F2----------C---------G---------|

E|-----0-----3-----------0---------3---------|
B|-----1-----1-----------1---------0---------|
G|-----0-----0-----------0---------0---------|
D|--3--3-----3-----------2---------0---------|
A|-----------------------3---------2---------|
E|---------------------------------3---------|


So give to me            just what I need
E|------| F-----F2------------F3---------------|

E|-----0-----3-------------0----------------|
B|-----1-----1-------------1----------------|
G|-----0-----0-------------2----------------|
D|---3-3-----3-------------3----------------|
A|-------------------------3----------------|
E|-------------------------1----------------|


This one last time
E|--------C--------------|

E|-------0--------------|
B|-------1--------------|
G|-------0--------------|
D|-------2--------------|
A|-------3--------------|
E|-------3--------------|



I'll spend my days doing what is right
E|------| F/C--------------------C-----------------|

E|-----0----------------------0--------0--------|
B|-----1----------------------1--------1--------|
G|-----0----------------------0--------0--------|
D|-----3----------------------2---0--0/2--------|
A|-----3----------------------3--3--3--3--------|
E|----------------------------------------------|

I will not fall       I will not fall  So do be strong
E|-------------| G---------F/C----------------C--------|

E|------------3----------0-----------------0--------|
B|------------0----------1-----------------1--------|
G|------------0----------0-----------------0--------|
D|------------0----------3-----------------2--------|
A|------------2----------3-----------------3--------|
E|------------3-------------------------------------|

[Chorus]

And give to me your quiet and strong resolve
E|------| G-------------Am---F/C---C-----|

E|-----3--------------0---0-----0-----|
B|-----0--------------1---1-----1-----|
G|-----0--------------2---0-----0-----|
D|-----0--------------2---3-----2-----|
A|-----2--------------0---3-----3-----|
E|-----3------------------------------|


I need it now my days and my nights are long
E|------| G------------Am---------F/C---C-----|

E|-----3-------------0---------0-----0-----|
B|-----0-------------1---------1-----1-----|
G|-----0-------------2---------0-----0-----|
D|-----0-------------2---------3-----2-----|
A|-----2-------------0---------3-----3-----|
E|-----3-----------------------------------|

FULL BAND COMES IN:

I ask of you    to bring me home
E|------| F/C--------------------C---------|

E|-----0----------------------0---------|
B|-----1----1-----------------1---1-----|
G|-----0------0---------------0-----0---|
D|-----3---3------------------2--2------|
A|-----3----------------------3---------|
E|----------------------------3---------|


For all the years        that I may roam
E|------| F---------------------C-------|

E|-----1----------------------0-------|
B|-----1----------------------1-------|
G|-----2----------------------0-------|
D|-----3----------------------2-------|
A|-----3----------------------3-------|
E|-----1----------------------(3)-----|

You showed me love through all my faults so do not stall
E|-------------| G-------------------F/C---------------C--------|

E|------------3-------------------0-----------------0--------|
B|------------0-------------------1-----------------1--------|
G|------------0-------------------0-----------------0--------|
D|------------0-------------------3-----------------2--------|
A|------------2-------------------3-----------------3--------|
E|------------3----------------------------------------------|

[Chorus]

And give to me your quiet and strong resolve
E|------| G-------------Am---F/C---C-----|

E|-----3--------------0---0-----0-----|
B|-----0--------------1---1-----1-----|
G|-----0--------------2---0-----0-----|
D|-----0--------------2---3-----2-----|
A|-----2--------------0---3-----3-----|
E|-----3------------------------------|


I need it now my days and my nights are long
E|------| G------------Am---------F/C---C-----|

E|-----3-------------0---------0-----0-----|
B|-----0-------------1---------1-----1-----|
G|-----0-------------2---------0-----0-----|
D|-----0-------------2---------3-----2-----|
A|-----2-------------0---------3-----3-----|
E|-----3-----------------------------------|


                Have I come home? Just show me how
E|------| F-----F2----------F---F2------------G----Am------|

E|-----0-----3-----------0---3-------------3-------0----|
B|-----1-----1-----------1---1-------------0---0-/-1----|
G|-----0-----0-----------0---0-------------0---0-/-2----|
D|---3-3-----3---------3-3---3-------------0---0-/-2----|
A|-----------------------------------------2-------0----|
E|-----------------------------------------3------------|


Please show me how
E|------| F-----F2--------|

E|-----0-----3---------|
B|-----1-----1---------|
G|-----0-----0---------|
D|--3--3-----3---------|
A|---------------------|
E|---------------------|

[Chorus]

And give to me your quiet and strong resolve
E|------| G-------------Am---F/C---C-----|

E|-----3--------------0---0-----0-----|
B|-----0--------------1---1-----1-----|
G|-----0--------------2---0-----0-----|
D|-----0--------------2---3-----2-----|
A|-----2--------------0---3-----3-----|
E|-----3------------------------------|


I need it now my days and my nights are long
E|------| G------------Am---------F/C---C-----|

E|-----3-------------0---------0-----0-----|
B|-----0-------------1---------1-----1-----|
G|-----0-------------2---------0-----0-----|
D|-----0-------------2---------3-----2-----|
A|-----2-------------0---------3-----3-----|
E|-----3-----------------------------------|

       Have I come home?
E|------| F-----F2----F----F2------|

E|-----0-----3-----0-----3------|
B|-----1-----1-----1-----1------|
G|-----0-----0-----0-----0------|
D|-----3-----3--3--3-----3------|
A|------------------------------|
E|------------------------------|
Otros videos de esta canción
    8 exhibiciones
      • ½ Tono
      • A
      • Bb
      • B
      • C
      • Db
      • D
      • Eb
      • E
      • F
      • F#
      • G
      • Ab
    • Agregar a la lista

    Afinação da cifra

    Afinador online

      Ops (: Contenido disponible solo en portugués.
      OK