Cifra Club

To Be Loved

Tonic

Cifrado: Principal (guitarra y guitarra eléctrica)
Selo Cifra Club: esta cifra foi revisada para atender aos critérios oficiais da nossa Equipe de Qualidade.
tono: F
   Am*  Am  C*  C   Gm  F Fmaj7 D/A C/G  G5
E|--0---0---3---0---3---1---0------------3--|
B|--x---1---5---1---3---1---1----7---3---3--|
G|--5---2---5---0---3---2---2----7---3---0--|
D|--7---2---5---2---5---3---3----7---3---0--|
A|--7---0---3---3---5---3---3------------x--|
E|--5---------------3---1---1------------3--|
    T                       T


Note:  - In the above chords, a 'T' indicates you should fret the
         low E string with your thumb.

       - The lead guitar in the bridge is not the same as
         (Main Riff), however the chords are the same



[Main Riff]

    Am*                                     Optional:  C/G     D/A
E|--------------------------------------------------------------------|
B|--------------------------------------------------------------------|
G|--------------------------------------------------------------------|
D|--------------5-7--------------5-7--------------5-7------5----------|
A|------3---5/7----------3---5/7----------3---5/7------5/7---7-5------|
E|--3/5---5----------3/5---5----------3/5---5--------------------3-4--|



[Fill Riff]

    D/A         C/G
E|----------------------------|
B|--7h8-8-8-8p7--5h6-6-6-6p5--|
G|--7---7-7-7----5---5-5-5----|
D|--7---7-7-7----5---5-5-5----|
A|----------------------------|
E|----------------------------|



[Verse 1]

Am*                            (Fill Riff)
Love, did you come to justify?
Am*                                   (Fill Riff)
Love, all the things you cannot find?
C*                         Gm
And love, it wasn't just a passing thing
         F
It never promised you


[Chorus]

   C
So give us freedom, give us light
Fmaj7
Someone that keeps us warm at night
       Am           G5
All we want, all we want
         F
Is to be loved

(Main Riff)


[Verse 2]

Am*                                     (Fill Riff)
Lines, tells you what you cannot change
Am*                                (Fill Riff)
Find, everything that's rearranged
C*                       Gm
And love, everything you couldn't find
           F
They never promised you


[Chorus]

   C
So give us freedom, give us light
Fmaj7
Someone that keeps us warm at night
       Am           G5
All we want, all we want
         F
Is to be loved


[Bridge]

    Am*                                     Optional:  C/G     D/A
E|--------------------------------------------------------------------|
B|--------------------------------------------------------------------|
G|--------------------------------------------------------------------|
D|--------------5-7--------------5-7--------------5-7------5----------|
A|------3---5/7----------3---5/7----------3---5/7------5/7---7-5------|
E|--3/5---5----------3/5---5----------3/5---5--------------------3-4--|


[Verse 3]

C*                           Gm
And love, all you said you'd never find
   C*             Gm
It here, and it's by design
           F
They never promised you


[Chorus]

   C
So give us freedom, give us light
Fmaj7
Someone that keeps us warm at night
       Am           G5
All we want, all we want
         F
Is to be loved

C
Show us easy, show us strong
Fmaj7
Show us what's forever gone
       Am           G5
All we want, all we want
         F
Is to be loved



************************************

| x   Dead note
| h   Hammer-on
| p   Pull-off
| /   Slide up
| \   Slide down
Otros videos de esta canción
    5 exhibiciones
      • ½ Tono
      • A
      • Bb
      • B
      • C
      • Db
      • D
      • Eb
      • E
      • F
      • F#
      • G
      • Ab
    • Agregar a la lista

    Afinação da cifra

    Afinador online

      Ops (: Contenido disponible solo en portugués.
      OK