Cifra Club

Prison Sex

Tool

Cifrado: Principal (guitarra y guitarra eléctrica)
Selo Cifra Club: esta cifra foi revisada para atender aos critérios oficiais da nossa Equipe de Qualidade.
tono: A
E|------------------------------|------------------------------|
B|------------------------------|------------------------------|
G|------------------------------|------------------------------|
D|-----------------------0h2----|-----------------------0h2----|
A|-----x---x-----x---x----------|-----x---x-----x-x-x-x--------|
E|-0---x-0-x-0---x-0-x-0--------|-0---x-0-x-0---x-x-x-x--------|

E|------------------------------|--------------------------------|
B|------------------------------|--------------------------------|
G|------------------------------|--------------------------------|
D|-----------------------0h2----|-2-----2-0-----0-------------0--|
A|-----x---x-----x---x----------|-----------------2-----2-0h2----|
E|-0---x-0-x-0---x-0-x-0--------|--------------------------------|

 riff A                         riff B
E|------------------------| |----------------------------|
B|------------------------| |----------------------------|
G|------------------------| X 4 |----------------------------| X 8
D|-0---------2------------| |----------------------------|
A|---------| &-0-----0h2----|     |--------------------2-2-2---|
E|---2b(3)-------3--------| |-3--0--0--5----0--0-0-0-0---|
                                 pm - - -'     pm- - - - -'

 riff C
E|--------------------|
B|--------------------|
G|-------14\----------|
D|---0---14\----------|
A|-----| &-12\--0H2---2-|
E|-3------------------|

[riff B] X 8

[riff C] X 3


   fill 1              riff D
E|-------------------|---------------------------------|
B|-------------------|---------------------------------|
G|-------14\---------|---------------------------------| X 3
D|---0---14\-s| low----|---------------------------------|
A|-----| &-12\---------|---------------------------------|
E|-3-----------------|-0---0-10---0-3--0-5---0-5-0-3-0-|
                      pm- -'    pm    pm    pm  pm  pm

   riff E
E|-------------------------------------|
B|-------------------------------------|
G|-------------------------------------|
D|-4-4-4-9-9-9-7-7-7-/12-12-12-9-9-7-7-|
A|-2-2-2-7-7-7-5-5-5-/10-10-10-7-7-5-5-|
E|-------------------------------------|

[riff A] X 3

   fill 2
E|--------------------------|
B|--------------------------| [riff B] X 4
G|-----------4--------------|-----|
D|-0---------2--2-0-2-0-----|-0---| replace first note
A|---------| &------------2---|----- with this
E|---2b(3)------------------|

E|-------------------------------|
B|-------------------------------|
G|-------------------------------|
D|-------------------------------|
A|-----------------------2-2-2---|
E|-3-0-0-0-0-0-5----0--0-0-0-0---|
  pm- - - - -'     pm - - - -'

[riff B] X 3

[fill 1]

[riff D] X 3

[riff E] X 3

2:44

E|-------------------------------| |---------------------------------|
B|-------------------------------| |---------------------------------|
G|---------------------------0| H2-| X 3 |-2~-2-0--0----------0------------|
D|-----------------------0| H2-----|     |-----------2--2-0H2--------------|
A|-------------------------------| |---------------------------------|
E|-0----0-0-0-0----0-0-0---------| |---------------------------------|

[riff C] X 3

[fill 1]

E|---------------------------|---------------------------|
B|---------------------------|---------------------------|
G|---------------------------|---------------------------|
D|-4-------------------------|---------------------------|
A|-2-------------------------|---------------------------|
E|-0-------------------------|---------------------------|
 |                           |                           |
 |                           |                           |
 |                           |                           |
 | bass w/ echo (Q = Q Q Q Q)|                           |
G|---------------------------|---------------------------|
D|---------------------------|---------------------------|
A|-0-2-(0-2-0-2-0-2)-0-2-2-2-|-0-2-(0-2-0-2-0-2)-0-2-2-2-|
E|---------------------------|---------------------------|

bass:
G|---------------------------|---------------------------|
D|---------------------------|---------------------------|
A|-0-2-(0-2-0-2-0-2)-0-2-2-2-|-0-2-(0-2-0-2-0-2)-0-2-2-2-|
E|---------------------------|---------------------------|


 3:13
 bass continues pattern
E|---------7---------------------|----------|----------|----------|----------|
B|-------7----7------------------|----------|----------|----------|----------|
G|----9----------9-7-----7-------|--4-------|--3-------|--2-------|----------|
D|-9------------------7---9--2| H4-|-(4)--2H4-|-(4)--2H4-|-(4)--2H4-|-(4)/-/-4-|
A|-------------------------------|----------|----------|----------|--2/--/-2-|
E|-------------------------------|----------|----------|----------|----------|

                   3:35
E|---------------|--------------------------------------|
B|---------------|-12-12---12---12-12---12-12---12------|
G|----------9| H11-|-11-11---11---11-11---11-11---11-9H11-|
D|-(4/)-/-4------|--------------------------------------|
A|--2/--/-2------|--------------------------------------|
E|---------------|--------------------------------------|

E|-------------------------------------|-------------------------------------|
B|-11-11---11---11-11---11-11--11------|-10-10---10---10-10---10-10--10------|
G|-11-11---11---11-11---11-11--11-9| H11-|-11-11---11---11-11---11-11--11-9H11-|
D|-------------------------------------|-------------------------------------|
A|-------------------------------------|-------------------------------------|
E|-------------------------------------|-------------------------------------|

                     Lyr: I have found...
E|----------------------|-----------|-----------|-----------|-----------|
B|----------------------|-----------|-----------|-----------|-----------|
G|------------| A.H.------|-----------|-----------|-----------|-----------|
D|-9~~--9-9b---9b---9b\-|----4--2-0-|----4--2-4-|-5--4--2-0-|----4--5---|
A|----------------------|-2---------|-2---------|-----------|-2---------|
E|----------------------|-----------|-----------|-----------|-----------|

e|--------------------------------------------|
B|-3-0-0-0-5-0-0-0-3-0-0-0-10-0-0-0-12-0-12-0-|
G|--------------------------------------------|
D|--------------------------------------------|
A|--------------------------------------------|
E|--------------------------------------------|

E|------------------------| |----------------------------------------------|
B|------------------------| |----------------------------------------------|
G|------------------------| X 4 |----------------------------------------------|X 4
D|---------------------5--| |----------------------------------------------|
A|------------------------| |----------------------------------------------|
E|-0---0--0-0----0-0-0----| |-3--&--5-&-3--&--10--&--12-&-10---------------|

E|---------------------------|---------------------------|
B|---------------------------|---------------------------|
G|---------------------------|---------------------------| X 4
D|---------------------------|---------------------------|
A|---------------------------|-5----7--5-----------------|
E|-3----5--3----10----12--10-|-3----5--3----10----12--10-|

Subject: TAB: Prison Sex (Tool)

I believe I remember someone requesting whatever Tool songs anyone might
have. I looked around Nevada, and they don't even have a Tool directory.
So I took it upon myself to whip this up. I didn't have the tape with me,
so if there are any mistakes, they're probably my on errors in playing
the song, and there are lots of different fingerings you can use with
this song. Oh well, at least it sounds right to *me*... I can guarantee
the timing isn't accurate.

I also know just about everything on Undertow. I might get around to
posting them, but I'm not to good at transcription, and Tool songs aren't
too easy to transcribe...

Dropped D

X=muffled
h=hammer-on
p=pull-off
^=bend

  [Intro]
E|-----------------------------| 4X... -----------------------|
B|-----------------------------| -----------------------|
G|-----------------------------| -----------------------|
D|-----------------------0-h1--| -2--2-0--0-------------|
A|-2--2-2-2-2-2--2-2-2-2-------| -----------2--2-0-2-5--|
E|-----------------------------| -----------------------|
    X X X X    X X X X

E|-------------------------| 4X...
B|----------2--------------|
G|----7-----2--------------|
D|----7-----2-------0-h4---|
A|-0--5--0--0----0--0-h2---|
E|-0-----0-------0---------|
 X     X       X

E|--------------------------| -------------------------|
B|--------------------------| -------------------------|
G|--------------------------| ----7-----9--------------|
D|--------------------------| ----7-----7-(slide down)-|
A|-5--2--0--7---2--0-2-0-2--| -5--5--0-----------------|
E|--------------------------| -0-----0-----------------|
                                  X     X
                 a few times, and then ^


  I need you to feel this....
e|--------------------------| bunch ------------------------------------|
B|(slide up and down)-------  'o   ------------------------------------|
G|--------------------------| times ------------------------------------|
D|-4---14---7---9--7--9--9--| -4-4-4-9-9-9-7-7-7-12-12-12-9-9-7-7-|
A|-2---12---5---7--5--7--7--| -2-2-2-7-7-7-5-5-5-10-10-10-7-7-5-5-|
E|--------------------------| ------------------------------------|

After the second 'I need you to feel this' part...

E|-------------------------------| a few times..
B|-------------------------------|
G|-------------------------------|
D|-------------------0-h7-p0-h7--|
A|-2--2-2--2-2--2-2--------------|
E|-------------------------------|
 X  X X  X X  X X

  Cool sounding pseudo-solo part of the song:
E|-------------------------------------|
B|-------------------------------------|
G|--------------4----------------------|
D|------2----4------4---2--0-----------|
A|-2---------------------------0----2--|
E|-------------------------------------|

E|------------------------------------------------|
B|------------------------------------------------|
G|-----4-------3-------2--------------------------|
D|---4-4-----4-4-----4-4-----4--4--4-4-4-4--------|
A|-2-------2-------2---------2--2--2-2-2-2--------|
E|------------------------------------------------|

E|--------------------------------------------------------------------------|
B|--12---12---12--12-12-12--11---11---11-11-11-11--10---10---10-10-10-10----|
G|--11---11---11--11-11-11--11---11---11-11-11-11--11---11---11-11-11-11----|
D|--9----9----9---9--9--9---9----9----9--9--9--9---9----9----9--9--9--9-----|
A|--------------------------------------------------------------------------|
E|--------------------------------------------------------------------------|

E|--------------------------|
B|--------------------------|
G|--------------------------|
D|-9^10--9^10--9^10--9^10---|
A|--------------------------|
E|--------------------------|

  I have found some kind of temporary sanity in this...
E|-------------------------------------------------------------|
B|-------------------------------------------------------------|
G|-------------------------------------------------------------|
D|------4--2-0--------4---2--4--5--5--4---2--0-----4--2-0------|
A|--2-----------2-------------------------------2--------------|
E|-------------------------------------------------------------|

  I've come round full circle....
E|-------------------------------------------------------------| a few times
B|-------------------------------------------------------------|
G|------------------7-(s| lide down)-----------------------------|
D|------------------5------------------------------------------|
A|--2---2---2--2-2---------------------------------------------|
E|-------------------------------------------------------------|
  X   X   X  X X

E|-------------------------| A few times.
B|-------------------------|
G|-------------------------|
D|-----------------7--9--7-|
A|--2-0--5-0--7-0----------|
E|-------------------------|

  And those two weird ending chords:
e|---| ---|
B|-0-       -0-|
G|-4-  and  -4-|
D|-5-       -5-|
A|-2-       -3-|
e|---| ---|


************************************

|** Special Instructions
|** Tune low E C WN to low B
|b           - means bend up to next tabbed note (ie. --2b(3)---  means
              pick 2 and bend until it sounds like 3 )
|W   Whole note
|H   Half note
|Q   Quarter note
|E   Eighth note
|S   Sixteenth note
|T   Thirty-second note
|&   Rest
Otros videos de esta canción
    83 exhibiciones
      • ½ Tono
      • A
      • Bb
      • B
      • C
      • Db
      • D
      • Eb
      • E
      • F
      • F#
      • G
      • Ab
    • Agregar a la lista

    Afinación de cifrado

    Afinador online

      OK