Cifra Club

Undertow

Tool

Cifrado: Principal (guitarra y guitarra eléctrica)
Selo Cifra Club: esta cifra foi revisada para atender aos critérios oficiais da nossa Equipe de Qualidade.
tono: Dm
E|---------------|
B|---------------|
G|-6h9-99--------|
D|--------5--55--|
A|---------------|
E|---------------|

                x4                x8
E|-----------------|-----------------|
B|-----------------|-----------------|
G|-----------------|-----------------|
D|--5h7-7/10-0-00--|--5h7-7/10-0-00--|
A|-----------------|--5h7-7/10-0-00--|
E|-----------------|--5h7-7/10-0-00--|
                                pm

                          x2
E|----------------------------|----------------------------------------------|
B|----------------------------|----------------------------------------------|
G|----------------------------|----------------------------------------------|
D|----------------------------|---------------------------------------13--12-|
A|----------------------------|--------10---13--12---------5h7-7-10-x-13--12-|
E|--5h7-7-10-x-13--12-----xx--|--5h7-7-10-x-13--12-----xx--5h7-7-10-x-13--12-|

                       x4
E|-------------------------|--------|
B|--------2----5----7------|--------|
G|------2----5----7--------|--------|
D|--0-0--------------------|--------|
A|-------------------------|--------|
E|-------------------------|--\-----|

                         x4                          x3
E|---------------------------|---------------------------|------------------------|
B|---------------------------|---------------------------|------------------------|
G|---------------------------|---------------------------|------------------------|
D|--------2-2----------------|--2-22-14-14-10-10-7--777--|--2-22-14-14-10-10-5--5-|
A|-------------3-3--0-000----|--2-22-14-14-10-10-7--777--|--2-22-14-14-10-10-5--5-|
E|--2~-22--------------------|--2-22-14-14-10-10-7--777--|--2-22-14-14-10-10-5--5-|
                                 pm

E|------------------------------------------------------------|
B|------------------------------------------------------------|
G|------------------------------------------------------------|
D|------------------------------------------------------------|
A|--5-3-0-2-1-0-5-3-0-1-0-6-0--5-3-0-2-1-0-5-3-0-1-0-3-0-6-0--|
E|--5-3-0-2-1-0-5-3-0-1-0-6-0--5-3-0-2-1-0-5-3-0-1-0-3-0-6-0--|
  pm - - - - - - - - - - - - - - - - - - - - - - - - - - - |

E|-------------------------------------------------------------------|
B|-------------------------------------------------------------------|
G|-------------------------------------------------------------------|
D|-------------------------------------------------------6--8--3--0--|
A|--5-3-0-2-1-0-5-3-0-1-0-6-0--5-3-0-2-1-0-5-3-0-1-0-3-0-6--8--3--0--|
E|--5-3-0-2-1-0-5-3-0-1-0-6-0--5-3-0-2-1-0-5-3-0-1-0-3-0-6--8--3--0--|
  pm - - - - - - - - - - - - - - - - - - - - - - - - -|

               x4                x8
E|-----------------|-----------------|
B|-----------------|-----------------|
G|-----------------|-----------------|
D|--5h7-7/10-0-00--|--5h7-7/10-0-00--|
A|-----------------|--5h7-7/10-0-00--|
E|-----------------|--5h7-7/10-0-00--|
                                pm

E|------------------------------------------------------|
B|------------------------------------------------------|
G|------------------------------------------------------|
D|------------------------------------------------------|
A|------------------------------------------------------|
E|--5h7-7-10-x-13--12-----xx--5h7-7-10-x-13--16-----xx--|
                                        ph - -|

E|--------------------------------------------------|
B|--------------------------------------------------|
G|--------------------------------------------------|
D|---------------------------------------13--12-----|
A|--------10---13--12---------5h7-7-10-x-13--12-----|
E|--5h7-7-10-x-13--12-----xx--5h7-7-10-x-13--12-----|

                       x4
E|-------------------------|--------|
B|--------2----5----7------|--------|
G|------2----5----7--------|--------|
D|--0-0--------------------|--------|
A|-------------------------|--------|
E|-------------------------|--\-----|

                         x4                          x4
E|---------------------------|---------------------------|
B|---------------------------|---------------------------|
G|---------------------------|---------------------------|
D|--------2-2----------------|--2-22-14-14-10-10-7--777--|
A|-------------3-3--0-000----|--2-22-14-14-10-10-7--777--|
E|--2~-22--------------------|--2-22-14-14-10-10-7--777--|
                                 pm

                          x3
E|----------------------------|-------------------------|
B|--5-55-17-17-13-13-10-1010--|--5-55-17-17-13-13-8--8--|
G|--4-44-16-16-12-12-9--999---|--4-44-16-16-12-12-7--7--|
D|--2-22-14-14-10-10-7--777---|--2-22-14-14-10-10-5--5--|
A|--2-22-14-14-10-10-7--777---|--2-22-14-14-10-10-5--5--|
E|--2-22-14-14-10-10-7--777---|--2-22-14-14-10-10-5--5--|

E|------------------------------------------------------------|
B|------------------------------------------------------------|
G|------------------------------------------------------------|
D|--5-3-0-2-1-0-5-3-0-1-0-6-0--5-3-0-2-1-0-5-3-0-1-0-3-0-6-0--| x2
A|--5-3-0-2-1-0-5-3-0-1-0-6-0--5-3-0-2-1-0-5-3-0-1-0-3-0-6-0--|
E|--5-3-0-2-1-0-5-3-0-1-0-6-0--5-3-0-2-1-0-5-3-0-1-0-3-0-6-0--|

E|------------------------------------------------------------|
B|------------------------------------------------------------|
G|------------------------------------------------------------|
D|------------------------------------------------------------| x2
A|--5-3-0-2-1-0-5-3-0-1-0-6-0--5-3-0-2-1-0-5-3-0-1-0-3-0-6-0--|
E|--5-3-0-2-1-0-5-3-0-1-0-6-0--5-3-0-2-1-0-5-3-0-1-0-3-0-6-0--|
  pm - - - - - - - - - - - - - - - - - - - - - - - - - - - |

E|------------------------------------------------------------------|
B|------------------------------------------------------------------|
G|------------------------------------------------------------------|
D|------------------------------------------------------------------|
A|--5-3-0-2-1-0-5-3-0-1-0-6-0--5-3-0-2-1-0-5-3-0-1-----3-----6------|
E|--5-3-0-2-1-0-5-3-0-1-0-6-0--5-3-0-2-1-0-5-3-0-1-000-3-000-6-000--|
  pm - - - - - - - - - - - - - - - - - - - - - - - - - - - - - - |

E|-----------------------------|
B|-----------------------------|
G|-----------------------------|
D|-----------------------------|
A|--5-3-0-2-1-0-5-3-0-1-0-6-0--|
E|--5-3-0-2-1-0-5-3-0-1-0-6-0--|
  pm - - - - - - - - - - - -|

E|----------------------------------------------------------|
B|----------------------------------------------------------|
G|----------------------------------------------------------|
D|----------------------------------------------------------|
A|--5-3-0-2-1-0-5-3-0-1--0--3--0--6--0--7--0--10--0--11--0--|
E|--5-3-0-2-1-0-5-3-0-1--0--3--0--6--0--7--0--10--0--11--0--|
  pm - - - - - - - - - - - - - - - - - - - - - - - - - - |

E|------------------------------------------------|
B|------------------------------------------------|
G|------------------------------------------------|
D|--------------------------------xx--x-xx--<12>--|
A|--------------------------------xx--x-xx--<12>--|
E|--12-15--0--0--5-8--0--3--3--0--xx--x-xx--<12>--|
          pm-|      pm

E|------------------------------------|
B|------------------------------------|
G|------------------------------------|
D|-----------------------------0---3--|
A|-----------------------------0---3--|
E|--12-15--x--0--5-6-5--0x-----0---3--|
            pm

E|------------------------------------------------------------------------|
B|------------------------------------------------------------------------|
G|------------------------------------------------------------------------|
D|--12-15--0--0--5-8--0--3--3---0------12-15--0--0--5-6--0--3--3---0------|
A|--12-15--0--0--5-8--0--3--3---0------12-15--0--0--5-6--0--3--3---0------|
E|--12-15--0--0--5-8--0--3--3---0------12-15--0--0--5-6--0--3--3---0------|

E|------------------------------------------------------------------------|
B|------------------------------------------------------------------------|
G|------------------------------------------------------------------------|
D|--12-15--0--0--5-8--0--3--3---0------12-15--0--0--5-6-5--0---3---6------|
A|--12-15--0--0--5-8--0--3--3---0------12-15--0--0--5-6-5--0---3---6------|
E|--12-15--0--0--5-8--0--3--3---0------12-15--0--0--5-6-5--0---3---6------|

E|------------------------------------------------------------------------|
B|------------------------------------------------------------------------|
G|------------------------------------------------------------------------|
D|--12-15--0--0--5-8--0--3--3---0------12-15--0--0--5-6--0--3--3---0------|
A|--12-15--0--0--5-8--0--3--3---0------12-15--0--0--5-6--0--3--3---0------|
E|--12-15--0--0--5-8--0--3--3---0------12-15--0--0--5-6--0--3--3---0------|

E|--------------------------------------------------------------|
B|--------------------------------------------------------------|
G|--------------------------------------------------------------|
D|--12-15--0--0--5-8--0--3--3---0-xx-x-xxx--12-15--0--0--5-6-5--|
A|--12-15--0--0--5-8--0--3--3---0-xx-x-xxx--12-15--0--0--5-6-5--|
E|--12-15--0--0--5-8--0--3--3---0-xx-x-xxx--12-15--0--0--5-6-5--|

                                 x3
E|-----------------------------------|---------------------------|
B|-----------------------------------|---------------------------|
G|-----------------------------------|---------------------------|
D|--0---3---6---7---10---11---12-15--|--0---3---6---7---10---11--|
A|--0---3---6---7---10---11---12-15--|--0---3---6---7---10---11--|
E|--0---3---6---7---10---11---12-15--|--0---3---6---7---10---11--|

                                                                   x7
E|---------------------------------|-----------------------------------|
B|---------------------------------|-----------------------------------|
G|---------------------------------|-----------------------------------|
D|----------------0-12-15----------|------------------0-12-15----------|
A|--------0-12-15---------0-12-15--|----------0-12-15---------0-12-15--|
E|--12-15--------------------------|--0-12-15--------------------------|

(faster pace with hammer ons)
E|--------------------------------|
B|--------------------------------|
G|--------------------------------|
D|------------------0-0h3---------| x2
A|----------0-0h3---------0-3h3---|
E|--0-0h3-------------------------|
                       x3
E|-------------------------|-------------------|
B|-------------------------|-------------------|
G|-------------------------|-------------------|
D|--5-3-0-2-1-0-5-3-0-2-1--|--5-3-0-2-1-5-3-0--|
A|--5-3-0-2-1-0-5-3-0-2-1--|--5-3-0-2-1-5-3-0--|
E|--5-3-0-2-1-0-5-3-0-2-1--|--5-3-0-2-1-5-3-0--|
Otros videos de esta canción
    27 exhibiciones
      • ½ Tono
      • Am
      • Bbm
      • Bm
      • Cm
      • C#m
      • Dm
      • Ebm
      • Em
      • Fm
      • F#m
      • Gm
      • G#m
    • Agregar a la lista

    Afinación de cifrado

    Afinador online

      OK