Cifra Club

Eu Vou Viver Uma Virada

Toque No Altar

Tablatura: Principal
reproducciones 339
Tono: B
[Intro] G#m  F#  E  G#m  F#  E
        G#m  F#  E  G#m  F#  E

Riff 1
E|--------------------------------------------------------------------------------------------------------14-|
B|-12---11---11h12---12---11---11h12---12---11---11h12---12---11---11h12---12---11---11h12---12---11---11-14-|
G|-11---11---11------11---11---11------11---11---11------11---11---11------11---11---11------11---11---11-11-|
D|-----------------------------------------------------------------------------------------------------------|
A|-----------------------------------------------------------------------------------------------------------|
E|-----------------------------------------------------------------------------------------------------------|

G#m              F#        E
   Onde era tristeza se verá
G#m         F#         E
   A dupla honra me ornar
G#m          F#          E
   Com boas novas proclamar
G#m             F#         E
   Uma nova história celebrar

F#              G#m
   É chegada a minha hora
E
   Meu silêncio já acabou
F#                G#m          A
   Ouça o som da minha grande festa

B         F#        G#m           E
Eu vou viver uma virada em minha vida eu creio 
B          F#       G#m
Eu vou viver uma virada
B         F#        G#m           E
Eu vou viver uma virada em minha vida eu creio 
B         F#        G#m  F# G#m A
Eu vou viver uma virada

Riff 1
E|--------------------------------------------------------------------------------------------------------14-|
B|-12---11---11h12---12---11---11h12---12---11---11h12---12---11---11h12---12---11---11h12---12---11---11-14-|
G|-11---11---11------11---11---11------11---11---11------11---11---11------11---11---11------11---11---11-11-|
D|-----------------------------------------------------------------------------------------------------------|
A|-----------------------------------------------------------------------------------------------------------|
E|-----------------------------------------------------------------------------------------------------------|

( G#m  F#  E  G#m  F#  E)
( G#m  F#  E  G#m  F#  E)

G#m              F#        E
   Onde era tristeza se verá
G#m         F#         E
   A dupla honra me ornar
G#m          F#          E
   Com boas novas proclamar
G#m             F#         E
   Uma nova história celebrar

F#              G#m
   É chegada a minha hora
E
   Meu silêncio já acabou
F#                G#m          A
   Ouça o som da minha grande festa

B         F#        G#m           E
Eu vou viver uma virada em minha vida eu creio 
B          F#       G#m   E
Eu vou viver uma virada
B         F#        G#m           E
Eu vou viver uma virada em minha vida eu creio 
B         F#        G#m  F# G#m A
Eu vou viver uma virada

G#m            F#            E
   O que eu achava estar perdido
   G#m        F#         E
E tinha desistido de sonhar
     G#m          F#                E
Meu Deus já decretou: este é o meu dia
 C#m   D#  E         F#
Minha vi--rada festejar

C#        G#        A#m           F#
Eu vou viver uma virada em minha vida eu creio 
C#        G#        A#m   F#
Eu vou viver uma virada
C#        G#        A#m           F#
Eu vou viver uma virada em minha vida eu creio 
C#        G#        A#m  G# A#m B
Eu vou viver uma virada
C#        G#        A#m           F#
Eu vou viver uma virada em minha vida eu creio 
C#        G#        A#m   F#
Eu vou viver uma virada
C#        G#        A#m           F#
Eu vou viver uma virada em minha vida eu creio 
C#        G#        A#m  G# A#m B
Eu vou viver uma virada

0 comentarios

    mostrar más comentarios

    ¿Conseguiste tocar?

    41tocaron0aún no

    ¡Graba un vídeo tocando Eu Vou Viver Uma Virada y envianoslo!

    00:00 / 00:00
    outros vídeos desta música
    repetirqualidadeautomática
    Outro vídeos desta música
      00:00 / 00:00
      automática
      OK