Cifra Club

O Caderno

Toquinho

Chords: Principal (acoustic and electric guitars)
tone: C
[Intro] G6  C/G  F7M/G  G7(9/13)  
        C/G  Dm  Dm7  G7(4)  G7 
        Bm6(11+)  C/G  C  G7

[dedilhado - intro]

Parte 1 De 3
    G6         C/G       F7M/G    G7(9/13) 
E|--0----------0------0--0-----0--0-----0---|
B|-------------1----1----1----1---0----0----|
G|--4---2------0--0------2--2-----2--2------|
D|--5-5---5----2---------3--------3---------|
A|-------------3----------------------------|
E|--3----------3---------3--------3---------|

Parte 2 De 3
  C/G                Dm    Dm7  G7(4) G7 Bm6(11+)
E|--0------0-----0-----5-5-8-8-8-8----7/10--|
B|--1----1---1-----1---6-6-6-6-6-6--6-6-8---|
G|--0--0-------0-------7-7-7-7-7-7----7-10--|
D|--2----------------0-----------5----5-9---|
A|--3---------------------------------------|
E|--3---------------------------------------|

Parte 3 De 3
    C/G  C        G7
E|--12---8----------------------------------|
B|--13-----8------------0-------------------|
G|--12----9-9---------0---------------------|
D|------------------3-----------------------|
A|------------------------------------------|
E|-------8----8/3-3-------------------------|

[Primeira Parte] 

[dedilhado - primeira parte]

Parte 1 De 4
    C9          G/B         Am
E|--0---0---0-------------------0-----------|
B|----3---3-----3---3---3---1-------1-------|
G|----------------0---0-------2---2---2-----|
D|------------------------------------------|
A|--3-----------2-----------0---------------|
E|------------------------------------------|

Parte 2 De 4
    Gm6(11)  F        A5+     Dm
E|-----0-0--------------0--1----1-1---------|
B|-----1-1------1-1-----2-------3-3-3-------|
G|--3--3-3---2--2-2-----2-------2-2---------|
D|-----2-----3----------------0-------------|
A|--------------------0---------------------|
E|--3---------------------------------------|

Parte 3 De 4
   Dm         F      Bm5-/F  C/E    Am
E|-----1---1-----------3-3-----0-0---0--0---|
B|-----3---3----1-1----3-3-----1-1-----1--1-|
G|---2---2------2-2----4-4-----0-0--2-------|
D|-0----------3------3-------2--------------|
A|------------------------------------------|
E|------------------------------------------|

Parte 4 De 4
    Dm7     Bb5-(9) Am6          G4(7) G7 G
E|--1--1-1----------------------------------|
B|-----1-1-----5----3--------------1--0--3--|
G|-----2-2-----5----5----5---5-----------4--|
D|--0---------------4--4---4---4---3--3-----|
A|------------------------------------------|
E|-----------6------5--------------3--3-----|

    C9                   G/B
Sou eu que vou seguir você
               Am               Gm6(11)
Do primeiro rabisco até o bê-a-bá
    F      
Em todos os desenhos
 A5+             Dm
Coloridos vou estar
   F          Bm5-/F      C/E       Am
A casa, a montanha, duas nuvens no céu
      Dm7      Bb5-(9)  Am6  G4(7)  G7  G
E um sol a sorrir no papel

[Segunda Parte] 

[dedilhado - segunda parte]

Parte 1 De 5
   C9              G/B          Am
E|--0---0---0----------0------------0-------|
B|----3---3---3----3-------3----1-------1---|
G|-------------------0---0---0----2---2---2-|
D|------------------------------------------|
A|--3--------------2------------0-----------|
E|------------------------------------------|

Parte 2 De 5
    Gm6(11) F      A     Dm
E|-------------------0-0---------1----------|
B|-----1-1----1-1----2-2-----3-----3--------|
G|--3--3-3--2-2-2--------------2------------|
D|-----2----3-------------0-----------------|
A|-----------------0------------------------|
E|--3---------------------------------------|

Parte 3 De 5
    Dm          F      Bm5-/F  C/E    
E|------1---1------------3-3-----0-0--------|
B|------3---3-----1-1----3-3-----1-1--------|
G|----2---2-------2-2----4-4----------------|
D|--0-----------3------3-------2------------|
A|------------------------------------------|
E|------------------------------------------|

Parte 4 De 5
    Am          Dm7     Bb5-(9) Am6 
E|----1---1-----1--1-1----------------------|
B|------0---0------1-1----5---3-------------|
G|--2--------------2-2----5---5----5---5----|
D|--------------0-------------4--4---4---4--|
A|------------------------------------------|
E|----------------------6-----5-------------|

Parte 5 De 5
 G4(7) G7 G
E|------------------------------------------|
B|--1--0--3---------------------------------|
G|--------4---------------------------------|
D|--3--3------------------------------------|
A|------------------------------------------|
E|--3--3------------------------------------|

    C9                    G/B
Sou eu que vou ser seu colega
               Am             Gm6(11)
Seus problemas ajudar a resolver
     F                    A 
Te acompanhar nas provas bimestrais
          Dm
Você vai ver
   F        Bm5-/F  C/E    Am
Serei de você confidente fiel
         Dm7      Bb5-(9)   Am6  G4(7)  G7  G
Se seu pranto molhar meu papel

[Terceira Parte] 

[dedilhado - terceira parte]

Parte 1 De 5
    C9          G/B         Am
E|--0---0---0-------------------0-----------|
B|----3---3-----3---3---3---1-------1-------|
G|----------------0---0-------2---2---2-----|
D|------------------------------------------|
A|--3-----------2-----------0---------------|
E|------------------------------------------|
 
Parte 2 De 5
    Gm6(11)  F       A        Dm
E|-----0-0--------------0-0-----1-1---------|
B|-----1-1------1-1-----2-2-----3-3-3-------|
G|--3--3-3---2--2-2-------------2-2---------|
D|-----2-----3----------------0-------------|
A|--------------------0---------------------|
E|--3---------------------------------------|

Parte 3 De 5
   Dm         F             Bm5-/F   
E|-----1---1----------------------3---------|
B|-----3---3------1---1-------3-------------|
G|---2---2------2---2---2-------4-----------|
D|-0----------3-------------3---------------|
A|------------------------------------------|
E|------------------------------------------|
  
Parte 4 De 5
    C/E        Am            Dm7     Bb5-(9)   
E|----------0------0---0-----1--1-1---------|
B|------1--------1---1---1------1-1----5-5--|
G|----0--------2----------------2-2----5-5--|
D|--2------------------------0--------------|
A|------------------------------------------|
E|-----------------------------------6------|

Parte 5 De 5
    Am6   G4(7) G7 G
E|------------------------------------------|
B|--3--------1--0--3------------------------|
G|--5--5-5---------4------------------------|
D|--4--4-4---3--3---------------------------|
A|------------------------------------------|
E|--5--------3--3---------------------------|

    C9                   G/B
Sou eu que vou ser seu amigo
               Am
Vou lhe dar abrigo
            Gm6(11)     
Se você quiser
     F                   A                  Dm
Quando surgirem seus primeiros raios de mulher
   F           Bm5-/F   C/E       Am            
A vida se abrirá num feroz carrossel
     Dm7       Bb5-(9)   Am6  G4(7)  G7  G
E você vai rasgar meu papel

[Quarta Parte] 

[dedilhado - quarta parte]

Parte 1 De 5
    C9          G/B         Am   
E|--0---0---0-------------------0-----------|
B|----3---3-----3---3---3---1-------1-------|
G|----------------0---0-------2---2---2-----|
D|------------------------------------------|
A|--3-----------2-----------0---------------|
E|------------------------------------------|

Parte 2 De 5
    Gm6(11)        F        A        
E|------------0---------------0-0-----------|
B|-------1----1-------1-1-----2-2-----------|
G|--3----3----3----2--2-2-------------------|
D|-----2----2------3------------------------|
A|--------------------------0---------------|
E|--3---------------------------------------|

Parte 3 De 5
    Dm                   F           
E|----1-1--------1---1----------------------|
B|----3-3-3------3---3-------1---1----------|
G|----2-2------2---2-------2---2---2--------|
D|--0--------0-----------3------------------|
A|------------------------------------------|
E|------------------------------------------|

Parte 4 De 5
    Bm5-/F  C/E          Am            
E|----3--3------0---0--------0---0----------|
B|----3--3------1---1------1---1---1--------|
G|----4--4----0---0---0--2------------------|
D|--3-------2-------------------------------|
A|------------------------------------------|
E|------------------------------------------|

Parte 5 De 5
    Dm7      G       G#7          G#7     
E|--1--1-1-------------------------4---4----|
B|-----1-1-----3-3------4---4------7---7----|
G|-----2-2-----4-4------5---5------5---5----|
D|--0----------0-0----4---4---4-------------|
A|------------------------------------------|
E|-----------3-------4------------4---4-----|

    C9                 
O que está escrito em mim
   G/B             Am
Comigo ficará guardado
              Gm6(11)
Se lhe dá prazer
   F                     A
A vida segue sempre em frente
                  Dm
O que se há de fazer
    F        Bm5-/F  C/E          
Só peço a você um favor
      Am
Se puder
           Dm7      G          G#7
Não me esqueça num canto qualquer

[Ponte] C#7  Cm5+  A#m7  G#m11  
        F#  A#7

Parte 1 De 3
     C#           Cm5+          A#m7
E|------1---1-------------------------------|
B|------2---2---------6---6--------6---6----|
G|----1---1---1-------8---8--------6---6----|
D|------------------6---6---6----6---6---6--|
A|--4---------------------------------------|
E|----------------8-------------6-----------|

Parte 2 De 3

   G#m11     F#        A#7
E|-------------------------6----------------|
B|----2-6------------------6---6------------|
G|--4-4-4----3---3---3/7---7---7------------|
D|--4-4-6----4---4---4/6-------6------------|
A|------------------------------------------|
E|--4--------2-2---2---6-6---6---6----------|

Parte 3 De 3
    D#m 
E|----------6-------6-----------------------|
B|------7---7-------7---7-------------------|
G|------8-----8---------8-------------------|
D|----8---8-------8---8---------------------|
A|--6-----------6---------------------------|
E|------------------------------------------|


[Parte Final]

[dedilhado - parte final]

Parte 1 de 4 
     F#7M              F#6(9)
E|------------------------------------------|
B|---11--11----11--------9----9-------------|
G|---10--10----10--------8----8-------------|
D|---11-----11----11-------10---10----------|
A|---9-----------------9--------------------|
E|------------------------------------------|

Parte 2 de 4 
     Fm5+         A#m
E|------------------------------------------|
B|-----------6--------6---6-----------------|
G|-------6-----6----6---6---6---------------|
D|-----6---6------8-------------------------|
A|---8--------------------------------------|
E|------------------------------------------|

Parte 3 de 4 
    D#m7         G#7          C# 
E|------------------------------------1-----|
B|--7---7---7--------4---4--------2---2-----|
G|------6---6--------5---5------1---1---1---|
D|----8---8---8----4---4--------------------|
A|--6-------------------------4-------------|
E|---------------4--------------------------|

Parte 4 de 4 
    F#m/C#       C#  
E|--2-------2----1--------------------------|
B|--2---2---2----2--------------------------|
G|--2-2---2------1--------------------------|
D|--4------------3--------------------------|
A|--4------------4--------------------------|
E|------------------------------------------|

    F#7M     F#6(9)  Fm5+     
Só peço a você um favor
      A#m
Se puder
           D#m7     G#7        C#  F#m/C#  C#
Não me esqueça num canto qualquer
00:00 / 00:00
Other videos of this song
Repeat
Other videos of this song
Composed by Mutinho / Toquinho
Collaboration and Review:
4.937 views
    • ½ Tone
    • A
    • Bb
    • B
    • C
    • Db
    • D
    • Eb
    • E
    • F
    • F#
    • G
    • Ab
  • Add to list
    00:00 / 00:00
    OK