Cifra Club

Alles Ist Eins

Die Toten Hosen

Cifrado: Principal (guitarra y guitarra eléctrica)
Selo Cifra Club: esta cifra foi revisada para atender aos critérios oficiais da nossa Equipe de Qualidade.
tono: G




Verse & Chorus:

e |-3---3---3---3---|-2---2---2---2---|-3---3---3---3---|-2---2---2---2---|
B |---5---5---5---5-|---3---3---3---3-|---5---5---5---5-|---3---3---3---0-|
G |-----------------|-----------------|-----------------|-----------------|
D |-----------------|-----------------|-----------------|-0---------------|
A |-----------------|-2---------------|-3---------------|-----------------|
E |-0---------------|-----------------|-----------------|-----------------|

e |-3---2---0---0---|---------3-------|-----------0-----|-----------------|
B |---1---1---1---1-|-3---3-------3---|-1---1---1---1---|-4---4---4-----0-|
G |-----------------|---0---0---0---0-|---2---2-------2-|---2---0-----0---|
D |-----------------|-----------------|-----------------|-----------4-----|
A |-3---------------|-----------------|-0---------------|-2---------------|
E |-----------------|-3---------------|-----------------|-----------------|


Bridge:
e |-----------------|-----------------|-----------------|-----------------|
B |-----------------|-----------------|-----------------|-----------------|
G |-----0---5---4---|-----0---5---4---|-----0---5---4---|-----0---5---4---|
D |---4---2---2---2-|---4---2---2---2-|---4---2---2---2-|---4---2---2---2-|
A |-----------------|-----------------|-3---------------|-3---------------|
E |-0---------------|-0---------------|-----------------|-----------------|


End:
Play Bridge +

e |-----------------|-----------------|-----------------|-----------------|
B |-----------------|-----------------|-----------------|-----------------|
G |-----4---4---2---|-----4---4---2---|-----2---2---0---|-----2---2---0---|
D |---4---4---4---4-|---4---4---4---4-|---2---2---2---2-|---2---2---2---2-|
A |-5---------------|-5---------------|-3---------------|-3---------------|
E |-----------------|-----------------|-----------------|-----------------|

e |-----------------|-----------------|------0----------|-----------------|
B |-----------------|-----------------|-----0-----------|-----------------|
G |-----0---0---0---|-----0---0---0---|----0------------|-----------------|
D |---4---4---4---4-|---4---4---4---4-|---2-------------|-----------------|
A |-2---------------|-2---------------|--2--------------|-----------------|
E |-----------------|-----------------|-0---------------|-----------------|

Otros videos de esta canción
    33 exhibiciones
      • ½ Tono
      • A
      • Bb
      • B
      • C
      • Db
      • D
      • Eb
      • E
      • F
      • F#
      • G
      • Ab
    • Agregar a la lista

    Afinação da cifra

    Afinador online

      Ops (: Contenido disponible solo en portugués.
      OK