Cifra Club

Alles Wird Vorubergehen

Die Toten Hosen

Cifrado: Principal (guitarra y guitarra eléctrica)
Selo Cifra Club: esta cifra foi revisada para atender aos critérios oficiais da nossa Equipe de Qualidade.
tono: Dm
E|------------------------------------------------------------------------|
B|---6-----6---------10------10----------8------8----------5-----5--------|
G|------------------------------------------------------------------------|
D|-----7-------7--------10--------10-------10-------10-------7-------7----|
A|-5-----5---5---5-8-------8----8----8-7------7---7----7-4-----4---4---4--|
E|------------------------------------------------------------------------|


E|------------------------------------------------------------------------|
B|---6-----6---------10------10----------8------8----------5-----5--------|
G|------------------------------------------------------------------------|
D|-----7-------7--------10--------10-------10-------10-------7-------7----|
A|-5-----5---5---5-8-------8----8----8-7------7---7----7-4-----4---4---4--|
E|------------------------------------------------------------------------|
Manchmal laeuft es wie ...

E|------------------------------------------------------------------------|
B|---6-----6---------10------10----------8------8----------5-----5--------|
G|------------------------------------------------------------------------|
D|-----7-------7--------10--------10-------10-------10-------7-------7----|
A|-5-----5---5---5-8-------8----8----8-7------7---7----7-4-----4---4---4--|
E|------------------------------------------------------------------------|
Wo alles seine ...

E|------------------------------------------------------------------------|
B|---6-----6---------6-----6---------5-----5---------5-----5--------------|
G|------------------------------------------------------------------------|
D|-----8-------8-------7-------7-------5-------5-------5-------5----------|
A|-----------------5-----5---5---5-3-----3---3---3-3-----3---3---3--------|
E|-6-----6---6---6--------------------------------------------------------|
Und weil du grade ...

E|------------------------------------------------------------------------|
B|---6-----6---------6-----6---------5-----5------------------------------|
G|---------------------------------------------------3-----5--------------|
D|-----8-------8-------7-------7-------5-------5-------5------------------|
A|-----------------5-----5---5---5-3-----3---3---3-3-----3----------------|
E|-6-----6---6---6--------------------------------------------------------|
Es ist schoen wenn ...

F    C            Gm 
Alles wird voruebergehen. 
        F    C           Gm
Es wird alles mal voruebergehen 

E|------------------------------------------------------------------------|
B|---6-----6---------6-----6---------6-----6---------6--------------------|
G|------------------------------------------------------------------------|
D|-----7-------7-------8-------8-------7-------7-------8---7--------------|
A|-5-----5---5---5-----------------5-----5---5---5---------5--------------|
E|-----------------6-----6---6---6-----------------6-----6----------------|


E|------------------------------------------------------------------------|
B|---6-----6---------10------10----------8------8----------5-----5--------|
G|------------------------------------------------------------------------|
D|-----7-------7--------10--------10-------10-------10-------7-------7----|
A|-5-----5---5---5-8-------8----8----8-7------7---7----7-4-----4---4---4--|
E|------------------------------------------------------------------------|
Du denkst, dass du ...
E|------------------------------------------------------------------------|
B|---6-----6---------10------10----------8------8----------5-----5--------|
G|------------------------------------------------------------------------|
D|-----7-------7--------10--------10-------10-------10-------7-------7----|
A|-5-----5---5---5-8-------8----8----8-7------7---7----7-4-----4---4---4--|
E|------------------------------------------------------------------------|
Mit all den vielen ...

E|------------------------------------------------------------------------|
B|---6-----6---------6-----6---------5-----5---------5-----5--------------|
G|------------------------------------------------------------------------|
D|-----8-------8-------7-------7-------5-------5-------5-------5----------|
A|-----------------5-----5---5---5-3-----3---3---3-3-----3---3---3--------|
E|-6-----6---6---6--------------------------------------------------------|
Wenn der Boden unter ...

E|------------------------------------------------------------------------|
B|---6-----6---------6-----6---------5-----5------------------------------|
G|---------------------------------------------------3-----5--------------|
D|-----8-------8-------7-------7-------5-------5-------5------------------|
A|-----------------5-----5---5---5-3-----3---3---3-3-----3----------------|
E|-6-----6---6---6--------------------------------------------------------|
   Es ist schoen wenn ...

F    C            Gm 
Alles wird voruebergehen. 
        F    C           Gm     Gm Am
Es wird alles mal voruebergehen 
    Bb           Dm            F                    C
Die gute und die schwere Zeit, nichts bleibt jemals stehen 
     Bb                     Dm
Eine Hand voll Glueck reicht nie für zwei 
         F              C
man muss nehmen was man kriegt 
        Dm             A           Dm              Gm
Ich hab keine Angst zu sterben, so lang du bei mir bist 
     Bb                 A
Doch halt dich nicht an meiner Liebe 

E|----------------------------------------|
B|---6-----6---------6--------------------|
G|----------------------------------------|
D|-----7-------7-------8---7--------------|
A|-5-----5---5---5---------5--------------|
E|-----------------6-----6----------------|
   fest

F    C            Gm       
Alles wird voruebergehen 
        F    C           Gm     Bb
Es wird alles mal voruebergehen 
           F    C           Gm
Ja es wird alles mal voruebergehen...

E|------------------------------------------------------------------------|
B|---6-----6---------6-----6---------6-----6---------6--------------------|
G|------------------------------------------------------------------------|
D|-----7-------7-------8-------8-------7-------7-------8---7--------------|
A|-5-----5---5---5-----------------5-----5---5---5---------5--------------|
E|-----------------6-----6---6---6-----------------6-----6----------------|



F  C  Gm Am Bb Dm A
1  x  3  5  6  x  5
1  3  5  7  8  5  7
2  5  5  7  8  7  7
3  5  3  5  7  7  6
3  5  3  5  6  6  5
1  3  3  5  6  5  5
Otros videos de esta canción
    7 exhibiciones
      • ½ Tono
      • Am
      • Bbm
      • Bm
      • Cm
      • C#m
      • Dm
      • Ebm
      • Em
      • Fm
      • F#m
      • Gm
      • G#m
    • Agregar a la lista

    Afinação da cifra

    Afinador online

      Ops (: Contenido disponible solo en portugués.
      OK