Cifra Club

Bayern

Die Toten Hosen

Cifrado: Principal (guitarra y guitarra eléctrica)
Selo Cifra Club: esta cifra foi revisada para atender aos critérios oficiais da nossa Equipe de Qualidade.
tono: E
Standard Tuning

Intro :

Gt.1 (acoustic):
e -----0-----------0----------0----------0-------|
b -------0-----------0----------0----------0-----|
g -----------------------------------------------|
d -----------------------------------------------|
a --------------0---------------------2----------|
e --0----------------------0---------------------|


Verse 1 :

Gt.1 :
e -----0-----------0----------0----------0-------|
b -------0-----------0----------0----------4-----|
g -----------------------------------------------|
d -----------------------------------------------|
a --------------0---------------------2----------|
e --0----------------------0---------------------|
 Es gibt...

e -----0----------------------0----------0-------|
b -------2---------2------------0----------4-----|
g -------------------2---------------------------|
d -----------------------------------------------|
a --4-----------0----------2----------2----------|
e -----------------------------------------------|
    manche...                                   und es

e -----0-----------0---------------------0-------|
b -------0-----------0--------2------------4-----|
g ------------------------------2----------------|
d -----------------------------------------------|
a --------------0---------------------2----------|
e --0----------------------2---------------------|
    bleibt...

e -----0----------------------0----------0-------|
b -------2---------2------------0----------4-----|
g -------------------2---------------------------|
d -----------------------------------------------|
a --4-----------0----------2----------2----------|
e -----------------------------------------------|
    Andere...


Chorus (Gt.3) :

           E          A          E                B
   Es kann so viel passieren, es kann so viel geschehen,
       E               A            F#m                       B    Bsus4 B


Verse 2 (w/ gt.2 playing the same as in verse 1 on elec. guitar) :

Gt.3 (elec. w/distortion):
e -------------------------------------------------------------------|
b -------------------------------------------------------------------|
g ------------------2-2-2-2-2-2-2-2-----------------4-4-4-4-4-4-4-4--|
d --2-2-2-2-2-2-2-2-2-2-2-2-2-2-2-2-2-2-2-2-2-2-2-2-4-4-4-4-4-4-4-4--|
a --2-2-2-2-2-2-2-2-0-0-0-0-0-0-0-0-2-2-2-2-2-2-2-2-2-2-2-2-2-2-2-2--|
e --0-0-0-0-0-0-0-0-----------------0-0-0-0-0-0-0-0------------------|
  pm...............................................................
Ich meine...                                                        Und

e -------------------------------------------------------------------|
b -------------------------------------------------------------------|
g --6-6-6-6-6-6-6-6-2-2-2-2-2-2-2-2-4-4-4-4-4-4-4-4-4-4-4-4-4-4-4-4--|
d --6-6-6-6-6-6-6-6-2-2-2-2-2-2-2-2-4-4-4-4-4-4-4-4-4-4-4-4-4-4-4-4--|
a --4-4-4-4-4-4-4-4-0-0-0-0-0-0-0-0-2-2-2-2-2-2-2-2-2-2-2-2-2-2-2-2--|
e -------------------------------------------------------------------|
  pm...............................................................
  Real Madrid...                                                   Und ich

e -------------------------------------------------------------------|
b -------------------------------------------------------------------|
g ------------------2-2-2-2-2-2-2-2-----------------4-4-4-4-4-4-4-4--|
d --2-2-2-2-2-2-2-2-2-2-2-2-2-2-2-2-4-4-4-4-4-4-4-4-4-4-4-4-4-4-4-4--|
a --2-2-2-2-2-2-2-2-0-0-0-0-0-0-0-0-4-4-4-4-4-4-4-4-2-2-2-2-2-2-2-2--|
e --0-0-0-0-0-0-0-0-----------------2-2-2-2-2-2-2-2------------------|
  pm...............................................................
    hätt'...                                                        Und Uli

e -------------------------------------------------------------------|
b -------------------------------------------------------------------|
g --6-6-6-6-6-6-6-6-2-2-2-2-2-2-2-2-4-4-4-4-4-4-4-4-4-4-4-4-4-4-4-4--|
d --6-6-6-6-6-6-6-6-2-2-2-2-2-2-2-2-4-4-4-4-4-4-4-4-4-4-4-4-4-4-4-4--|
a --4-4-4-4-4-4-4-4-0-0-0-0-0-0-0-0-2-2-2-2-2-2-2-2-2-2-2-2-2-2-2-2--|
e -------------------------------------------------------------------|
  pm...............................................................
  Hoeneß...

Chorus 2 (Gt.3) :

             E               A                       E              B
   Ich würde meine Tür nicht öffnen, weil's für mich nicht in Frage kommt,
               E              A                 F#m          B


Bridge 1 (Gt.3) :
         G#5                              A5
    Das wollt' ich nur mal klarstellen, damit wir uns richtig verstehn,
        C#m               B
    Ich habe nichts gegen München,
              F#m                   A  B    fill#1

*NOTE: The G#5 and the A5 are palm-muted!!*

fill#1:
e ------------2-----|
b --2----5-4-5-4----|
g --2----4-4-4------|
d --2----4----------|
a --0----2----------|
e ------------------|

Solo (chords played by Gt.3):

Gt.2:
       E     G#m       C#m   G#m    A        E          B  fill#1
e ---------------------------------------------------------|
b ---------------------------------------------------------|
g ---------------------6--8------8--9-9-99\8---------------|
d --------6--9----6-9--------6---------------9-9-99--11\9--|
a --11\7---------------------------------------------------|
e ---------------------------------------------------------|

       E     G#m      C#m    G#m   A     E         B
e -------------------------------------77------77-------------------------------|
b ------------------------9------------------------10-----9-----7----5----4-----|
g ---------------------6-----8---8/9-9---9-9-9-----13b14-12b13-10b11-8b11-7b10--|
d --------6-/9----6-9-----------------------------------------------------------|
a --11\7------------------------------------------------------------------------|
e ------------------------------------------------------------------------------|

Bridge 2 (Gt.3) :

e ---------------------------------------------------------------|
b -------4-----4---------4-----4-----5-----5---------5-----5-----|
g ---------------------------------------------------------------|
d ----6------6-----6---6-----6-----7-----7-----7---7-----7-----7-|
a --6------6-----6---6-----6-----7-----7-----7---7-----7-----7---|
e ---------------------------------------------------------------|
  pm............................................................
    Muß denn ...                Leben ...

e -------------------------------------------------------------------|
b -------5-----5---------4-----4---------2-----2---------2-------4---|
g -----6-----6-----6---4-----4-----4-------------------2-------4-----|
d ---6-----6-----6---4-----4-----4-----4-----4-----4-2-----2-4----4--|
a -----------------------------------4-----4-----4-------------------|
e -------------------------------------------------------------------|
  pm............................................................

fill#1

Chorus 3 (Gt.3) :

            E          A          E                 B
    Es kann so viel passieren, es kann so viel geschehen,
           E                  A                      F#m                        B    Bsus4 B

Chorus 4 (Gt.4) :
            E              A         E               B
    Was für Eltern muß man haben, um so verdorben zu sein,
              E               A         F#m              B
    Einen Vertrag zu unterschreiben bei diesem Scheiß-Verein.

Outro:
               E          A              E         B

               E          A              B

               E          A              E               B
               E          A              B

(Fade out)

Used Chords:
E     0 2 2 1 0 0
A     x 0 2 2 2 0
B     x 2 4 4 4 2
F#m   2 4 4 2 2 2
Bsus4 x 2 4 4 5 2


Lyrics:

1. Es gibt nicht viel auf dieser Welt, woran man sich halten kann,
   manche sagen die Liebe, vielleicht ist da was dran.
   Und es bleibt ja immer noch Gott, wenn man sonst niemand hat,
   andre glauben an gar nichts, das Leben hat sie hart gemacht.

Chorus 1:
   Es kann so viel passieren, es kann so viel geschehen,

2. Ich meine wenn ich 20 wär, und super-talentiert,
   Und Real Madrid hätte schon angeklopft, und die Jungs aus Manchester.
   Und ich hätt' auch schon für Deutschland gespielt, und wär mental top-fit,
   und Uli Hoeneß würde bei mir auf der Matte stehn,

Chorus 2:
   Ich würde meine Tür nicht öffnen, weil's für mich nicht in Frage kommt,

Bridge 1:
   Das wollt' ich nur mal klarstellen,
   damit wir uns richtig verstehn,
   Ich habe nichts gegen München,

Solo

Bridge 2:
    Muß denn so was wirklich sein, ist das Leben nicht viel zu schön?

Chorus 3:
    Es kann so viel passieren, es kann so viel geschehen,

Chorus 4:
    Was für Eltern muß man haben, um so verdorben zu sein,
    Einen Vertrag zu unterschreiben bei diesem Scheiß-Verein.

Outro:

Fade out
Otros videos de esta canción
    60 exhibiciones
      • ½ Tono
      • A
      • Bb
      • B
      • C
      • Db
      • D
      • Eb
      • E
      • F
      • F#
      • G
      • Ab
    • Agregar a la lista

    Afinação da cifra

    Afinador online

      Ops (: Contenido disponible solo en portugués.
      OK