Cifra Club

Bser Wolf Solo

Die Toten Hosen

Cifrado: Principal (guitarra y guitarra eléctrica)
Selo Cifra Club: esta cifra foi revisada para atender aos critérios oficiais da nossa Equipe de Qualidade.
tono: B
e-----------------------------6------------6-------------------0--|
B-----------------9---7---7-----7------6-----6---------------0----|
G---8---8------8----8-----8-------8----6-------6----------6-------|
D---------8---------------------------------------6----6----------|
A-----------------------------------------------------------------|
E-----------------------------------------------------------------|


e---------------5--5--4--2--4--------6------------6---------------|
B------9---7---------------------7-----7------6-----6-------------|
G---8----8-----------------------8-------8----6-------6-----------|
D-------------------------------------------------------6---------|
A-----------------------------------------------------------------|
E-----------------------------------------------------------------|

Otros videos de esta canción
    15 exhibiciones
      • ½ Tono
      • A
      • Bb
      • B
      • C
      • Db
      • D
      • Eb
      • E
      • F
      • F#
      • G
      • Ab
    • Agregar a la lista

    Afinação da cifra

    Afinador online

      Ops (: Contenido disponible solo en portugués.
      OK