Cifra Club

Eisgekhlter Bommerlunderlive

Die Toten Hosen

Cifrado: Principal (guitarra y guitarra eléctrica)
Selo Cifra Club: esta cifra foi revisada para atender aos critérios oficiais da nossa Equipe de Qualidade.
tono: Am
Intro(with fingerpicking)

VERY SLOWLY
   C                        G
E|-0---0---0---0---0---0----3---3---3---3---3---0---3---0----------------|
B|-1--1-1--1--1-1--1--1-1---0--0-0--0--0-0--0--3-3--0--3-3---------------|
G|-0-0---0-0-0---0-0-0---0--0-0---0-0-0---0-0-0---0-0-0---0--------------|
D|-----------------------------------------------------------------------|
A|-----------------------------------------------------------------------|
E|-0-------0-------0--------3-------3-------3-------3--------------------|


Verse/Strophe(Fast)
   C                        G
E|-----------------------------------------------------------------------|
B|-----------------------------------------------------------------------|
G|-----------------------------------------------------------------------|
D|-555555555555555555555555----------------------------------------------|
A|-333333333333333333333333-55555555555555555555555555555555-------------|
E|--------------------------33333333333333333333333333333333-------------|


Outro

Very Fast

   E               G
E|-05070507050705070508050805080508--------------------------------------|
B|--------------------------------------------| ON-------------------------|
G|--------------------------------------------T| HE------------------------|
D|--------------------------------------------| END------------------------|
A|---------------------------------------------------2~~-----------------|
E|---------------------------------------------------0~~-----------------|

Intro(2x)
Verse/Chorus(...x)
Outro(2x)

C
Eisgekühlter Bommerlunder,
                   G
Bommerlunder eisgekühlt,

eisgekühlter Bommerlunder,
                  C
Bommerlunder eisgekühlt,

und dazu ein belegtes Brot mit Schinken-(Schinken)-,
                      G
ein belegtes Brot mit Ei-(Ei)-,

das sind zwei belegte Brote,
                               C
eins mit Schinken und eins mit Ei,und dazu.
Otros videos de esta canción
    0 exhibiciones
      • ½ Tono
      • Am
      • Bbm
      • Bm
      • Cm
      • C#m
      • Dm
      • Ebm
      • Em
      • Fm
      • F#m
      • Gm
      • G#m
    • Agregar a la lista

    Afinação da cifra

    Afinador online

      Ops (: Contenido disponible solo en portugués.
      OK