Cifra Club

Heute Hier Morgen Dort

Die Toten Hosen

Cifrado: Principal (guitarra y guitarra eléctrica)
Selo Cifra Club: esta cifra foi revisada para atender aos critérios oficiais da nossa Equipe de Qualidade.
tono: G
E|-----3-3------3-3------3-3------3-3-|
B|-3-3-3-3--3-3-3-3--3-3-3-3--3-3-3-3-|
G|-0-0-0-0--0-0-0-0--0-0-0-0--0-0-0-0-|
D|-0-0------0-0------0-0------0-0-----|
A|------------------------------------|
E|------------------------------------|

    Heute hier morgen dort   bin kaum da muss ich fort hab mich niemals
E|----3-3-3-----3-3-3-----3-3-3-----3-3-3-----3-3-3-|
B|-3--3-3-3--3--3-3-3--1--1-1-1--3--3-3-3--3--3-3-3-|
G|-0--0-0-0--0--0-0-0--0--0-0-0--0--0-0-0--0--0-0-0-|
D|-0---------0---------0---------0---------0--------|
A|--------------------------------------------------|
E|--------------------------------------------------|

    deswegen beklagt hab es selbst so gewählt
E|----0-0-0-----2-2-2-----2-2-2-|
B|-0--0-0-0--3--3-3-3--3--3-3-3-|
G|-0--0-0-0--2--2-2-2--2--2-2-2-|
D|-2--2-2-2--0---------0--------|
A|------------------------------|
E|------------------------------|

    nie die Jahre gezählt  nie nach
E|----3-3-3-----3-3-3-----3-3-3-----3-3-3-----3-3-3-|
B|-3--3-3-3--3--3-3-3--1--1-1-1--3--3-3-3--3--3-3-3-|
G|-0--0-0-0--0--0-0-0--0--0-0-0--0--0-0-0--0--0-0-0-|
D|-0---------0---------0---------0---------0--------|
A|--------------------------------------------------|
E|--------------------------------------------------|

    gestern und morgen 
E|----0-0-0-----2-2-2-----2-2-2-|
B|-0--0-0-0--3--3-3-3--3--3-3-3-|
G|-0--0-0-0--2--2-2-2--2--2-2-2-|
D|-2--2-2-2--0---------0--------|
A|------------------------------|
E|------------------------------|

   gefragt
E|----3-3-3-----3-3-3-|
B|-3--3-3-3--3--3-3-3-|
G|-0--0-0-0--0--0-0-0-|
D|-0---------0--------|
A|--------------------|
E|--------------------|
 
    Manchmal träume ich schwer und dann denk ich  es wär
E|----2-2-2-----2-2-2-----3-3-3-----3-3-3-|
B|-3--3-3-3--3--3-3-3--1--1-1-1--3--3-3-3-|
G|-2--2-2-2--2--2-2-2--0--0-0-0--0--0-0-0-|
D|-0---------0---------0---------0--------|
A|----------------------------------------|
E|----------------------------------------|

    Zeit zu bleiben und nun was ganz andres zu tun
E|----2-2-2-----2-2-2-----3-3-3-----3-3-3-|
B|-3--3-3-3--3--3-3-3--1--1-1-1--3--3-3-3-|
G|-2--2-2-2--2--2-2-2--0--0-0-0--0--0-0-0-|
D|-0---------0---------0---------0--------|
A|----------------------------------------|
E|----------------------------------------|

   So vergeht Jahr um Jahr und es ist mir längst klar
E|----3-3-3-----3-3-3-----3-3-3-----3-3-3--|
B|-3--3-3-3--3--3-3-3--1--1-1-1--3--3-3-3--|
G|-0--0-0-0--0--0-0-0--0--0-0-0--0--0-0-0--|
D|-0---------0---------0---------0---------|
A|-----------------------------------------|
E|-----------------------------------------|

    dass nichts bleibt, dass nichts bleibt wie es war
   gt1
E|----0-0-0-----2-2-2-----3-3-3-----3-3-3-|
B|-0--0-0-0--3--3-3-3--3--3-3-3--3--3-3-3-|
G|-0--0-0-0--2--2-2-2--0--0-0-0--0--0-0-0-|
D|-2--2-2-2--0---------0---------0--------|
A|----------------------------------------|
E|----------------------------------------|
   gt2  fdbk
E|-----------------------|
B|------------1--0-0-0-0-|
G|------------0--0-0-0-0-|
D|------------0--0-0-0-0-|
A|-----------------------|
E|-1h3-------------------|

   Dass man mich kaum vermisst schon nach Tagen vergisst wenn ich längst 
E|-------------------------------------------------------------|
B|-------------------------------------------------------------|
G|------------------------5-5-5--------------------------------|
D|----5-5-5-----5-5-5--5--5-5-5-----5-5-5-----5-5-5-----5-5-5--|
A|-5--5-5-5--5--5-5-5--3--3-3-3--5--5-5-5--5--5-5-5--5--5-5-5--|
E|-3--3-3-3--3--3-3-3------------3--3-3-3--3--3-3-3--3--3-3-3--|

   wieder anderswo bin
E|------------------------------|
B|------------------------------|
G|----9-9-9-----7-7-7-----7-7-7-|
D|-9--9-9-9--7--7-7-7--7--7-7-7-|
A|-7--7-7-7--5--5-5-5--5--5-5-5-|
E|------------------------------|

    stört und kümmert mich nicht Vielleicht bleibt mein Gesicht
E|--------------------------------------------------|
B|--------------------------------------------------|
G|------------------------5-5-5---------------------|
D|----5-5-5-----5-5-5--5--5-5-5-----5-5-5-----5-5-5-|
A|-5--5-5-5--5--5-5-5--3--3-3-3--5--5-5-5--5--5-5-5-|
E|-3--3-3-3--3--3-3-3------------3--3-3-3--3--3-3-3-|

   doch dem ein oder andern im Sinn
E|--------------------------------------------------|
B|--------------------------------------------------|
G|----9-9-9-----7-7-7-----7-7-7---------------------|
D|-9--9-9-9--7--7-7-7--7--7-7-7-----5-5-5-----5-5-5-|
A|-7--7-7-7--5--5-5-5--5--5-5-5--5--5-5-5--5--5-5-5-|
E|-------------------------------3--3-3-3--3--3-3-3-|


    Manchmal träume ich schwer und dann denk ich es wär
E|--------------------------------------------------|
B|--------------------------------------------------|
G|----7-7-7-----7-7-7-----5-5-5---------------------|
D|-7--7-7-7--7--7-7-7--5--5-5-5-----5-5-5-----5-5-5-|
A|-5--5-5-5--5--5-5-5--3--3-3-3--5--5-5-5--5--5-5-5-|
E|-------------------------------3--3-3-3--3--3-3-3-|

    Zeit zu bleiben und nun was ganz andres zu tun
E|--------------------------------------------------|
B|--------------------------------------------------|
G|----7-7-7-----7-7-7-----5-5-5---------------------|
D|-7--7-7-7--7--7-7-7--5--5-5-5-----5-5-5-----5-5-5-|
A|-5--5-5-5--5--5-5-5--3--3-3-3--5--5-5-5--5--5-5-5-|
E|-------------------------------3--3-3-3--3--3-3-3-|

    So vergeht Jahr um Jahr und es ist mir längst klar 
E|--------------------------------------------------|
B|--------------------------------------------------|
G|------------------------5-5-5---------------------|
D|----5-5-5-----5-5-5--5--5-5-5-----5-5-5-----5-5-5-|
A|-5--5-5-5--5--5-5-5--3--3-3-3--5--5-5-5--5--5-5-5-|
E|-3--3-3-3--3--3-3-3------------3--3-3-3--3--3-3-3-|

   dass nichts bleibt dass nichts bleibt wie es war
E|--------------------------------------------------|
B|--------------------------------------------------|
G|----9-9-9-----7-7-7-----7-7-7---------------------|
D|-9--9-9-9--7--7-7-7--7--7-7-7-----5-5-5-----5-5-5-|
A|-7--7-7-7--5--5-5-5--5--5-5-5--5--5-5-5--5--5-5-5-|
E|-------------------------------3--3-3-3--3--3-3-3-|

   solo   
E|---------------------------------------------------------------------------|
B|---------------------------5---5-3--3-3--3-3--3-3--3-3--3-3--5-5--5-5--5-5-|
G|--------4-------------7----------------------------------------------------|
D|-5~~~~----7----5~~~--------------------------------------------------------|
A|---------------------------------------------------------------------------|
E|---------------------------------------------------------------------------|

E|------------------------------------|
B|-3-3-----3-3--3-3--3-3--3-3---------|
G|-----4-4--------------------4-------|
D|------------------------------5-----|
A|------------------------------------|
E|------------------------------------|

    Fragt mich einer warum ich so bin, bleib ich stumm
E|-------------------------------------------------------------|
B|-------------------------------------------------------------|
G|-------------------------------------------------------------|
D|---------------------5---------------------------------------|
A|-5-------------------3---------5-------------------5---------|
E|-3-----------------------------3-------------------3---------|

   denn die Antwort darauf fällt mir schwer
E|--------------------|
B|--------------------|
G|--------------------|
D|-9----------------7-|
A|-7----------------5-|
E|--------------------|

    Denn was neu ist  wird alt und was gestern noch galt
E|-------------------------------------------------------------|
B|-------------------------------------------------------------|
G|-------------------------------------------------------------|
D|---------------------5-----------------------------9---------|
A|-5-------------------3---------5-------------------7---------|
E|-3-----------------------------3-----------------------------|

   stimmt schon heut oder morgen nicht mehr
E|--------------------|
B|--------------------|
G|--------------------|
D|-7------------------|
A|-5----------------5-|
E|------------------3-|

    Manchmal träume ich schwer und dann denk ich es wär
E|--------------------------------------------------|
B|--------------------------------------------------|
G|----7-7-7-----7-7-7-----5-5-5---------------------|
D|-7--7-7-7--7--7-7-7--5--5-5-5-----5-5-5-----5-5-5-|
A|-5--5-5-5--5--5-5-5--3--3-3-3--5--5-5-5--5--5-5-5-|
E|-------------------------------3--3-3-3--3--3-3-3-|

    Zeit zu bleiben und nun was ganz andres zu tun
E|--------------------------------------------------|
B|--------------------------------------------------|
G|----7-7-7-----7-7-7-----5-5-5---------------------|
D|-7--7-7-7--7--7-7-7--5--5-5-5-----5-5-5-----5-5-5-|
A|-5--5-5-5--5--5-5-5--3--3-3-3--5--5-5-5--5--5-5-5-|
E|-------------------------------3--3-3-3--3--3-3-3-|

    So vergeht Jahr um Jahr und es ist mir längst klar dass nichts bleibt
E|-------------------------------------------------------------|
B|-------------------------------------------------------------|
G|------------------------5-5-5-------------------------9-9-9--|
D|----5-5-5-----5-5-5--5--5-5-5-----5-5-5-----5-5-5--9--9-9-9--|
A|-5--5-5-5--5--5-5-5--3--3-3-3--5--5-5-5--5--5-5-5--7--7-7-7--|
E|-3--3-3-3--3--3-3-3------------3--3-3-3--3--3-3-3------------|

   dass nichts bleibt wie es war
E|------------------------------|
B|------------------------------|
G|----7-7-7---------------------|
D|-7--7-7-7-----5-5-5-----5-5-5-|
A|-5--5-5-5--5--5-5-5--5--5-5-5-|
E|-----------3--3-3-3--3--3-3-3-|

    So vergeht Jahr um Jahr und es ist mir längst klar dass nichts bleibt
E|-------------------------------------------------------------|
B|-------------------------------------------------------------|
G|------------------------5-5-5-------------------------9-9-9--|
D|----5-5-5-----5-5-5--5--5-5-5-----5-5-5-----5-5-5--9--9-9-9--|
A|-5--5-5-5--5--5-5-5--3--3-3-3--5--5-5-5--5--5-5-5--7--7-7-7--|
E|-3--3-3-3--3--3-3-3------------3--3-3-3--3--3-3-3------------|

   dass nichts bleibt wie es war
E|------------------------------|
B|------------------------------|
G|----7-7-7---------------------|
D|-7--7-7-7-----5-5-5-----5-5-5-|
A|-5--5-5-5--5--5-5-5--5--5-5-5-|
E|-----------3--3-3-3--3--3-3-3-|

    dass nichts bleibt wie es war
E|----------------------------------------------|
B|----------------------------------------------|
G|----9-9-9-----7-7-7--------5------------------|
D|-9--9-9-9--7--7-7-7--------5----------------5-|
A|-7--7-7-7--5--5-5-5--------3----------------5-|
E|--------------------------------------------3-|
Otros videos de esta canción
    1 exhibiciones
      • ½ Tono
      • A
      • Bb
      • B
      • C
      • Db
      • D
      • Eb
      • E
      • F
      • F#
      • G
      • Ab
    • Agregar a la lista

    Afinação da cifra

    Afinador online

      Ops (: Contenido disponible solo en portugués.
      OK