Cifra Club

Paradies

Die Toten Hosen

Cifrado: Principal (guitarra y guitarra eléctrica)
Selo Cifra Club: esta cifra foi revisada para atender aos critérios oficiais da nossa Equipe de Qualidade.
tono: C
#



Date: Sun, 14 Jan 1996 21:16:32 +0100
From: M.K*
Subject: nt

Hi, there's a new tab:
tabbed by Martin Koellensperger


I've done this by ear, so there might be some mistakes,
you may even have to tune half down

Intro
e |----------|----------|
h |----------|----------|
g |----------|----------|
D |----------|----------|
A |--77777777|--77777777|
E |4/55555555|4/55555555|


(A)wer kann schon sagen, was mit (G)uns geschieht,
(A)vielleicht stimmt es ja (D)doch,
(A)dass das Leben eine (G)Pruefung ist,
in der wir (C)uns be(H)wahren (A)solln.

(A)Nur wer die mit (G)Eins besteht,
(A)darf in den Himmel (D) komm',
(A)fur den ganzen (G)dreckigen Rest
bleibt die (C)Hoelle der (H)Wiederge (A)burt.

(C)Als Tourist auf (G)Ibiza,
(A)als Verkehrspoli(E)zist,
(A)als ein Clown in einer (G)Zirkusshow,
den (C)keiner (H)sehen (A)will.

(A)um diesem Schicksal (G)zu entgehn
(A)solln wir uns redlich be (D) muehn
(A)jeden Tag mit 'nem (G)Gebet beginn
an (C)stelle von (H)Aspir (A)in.

(A)Nur wer immer gleich zum (G)Beichtstuhl rennt
(A)als waere es ein Wett (D) lauf
(A)und dort ale seine (G)Suenden nennt
der (C)handelt einen (H)Freispruch (A)aus.

 wenn der (D) Weg dorthin so schwierig ist,
(A)ich stelle keinen Antrag (G)auf Asyl,
meinet (C)wegen (H)bleib ich (A)hier

(A)Wer Messer und Gabel richtig (G)halten kann
(A)und beim Essen grade (D)sitzt,
(A)wer sein Schicksal mit (G) Demut traegt,
dem (C) winkt die Er (H)loesung (A) zu.

(A)Wir solln zuhorn und (G) aufpassen,
(A)tun was man uns (D) sagt,
(A)unterordnen und (G)nachmachen,
vom (C) ersten bis zum (H)letzten (A)Tag

(C)Immer schoen nach den (G)Regeln spieln,
(A)die uns befohlen sind(E)
(A)wie sie im Buch des (G)lebens stehen
in (C)Ewig (H)keit da (A)mit.

wenn der (D) Weg dorthin so (C)schwierig ist,
(A)wer weiss ob es uns dort (G)besser geht,
(C)hinter dieser (D)Tur.

wenn der (D)Weg dorthin so (C)schwierig ist,
(A) und bevor ich auf den (G)Knien bet'
(C)bleib ich meinet (H)wegen (A) hier.

solo
e |--------|--------|--------|--------|--------|
h |--------|--------|--------|--------|--------|
g |--------|--------|--------|----5-4-|2-----24|
D |--------|----5-3-|-------2|3-------|--------|
A |-------2|3-------|5-----5-|--------|--------|
E |------5-|--------|--------|--------|--------|

e |--------|--------|--------|--------|------5-|
h |--------|--------|-35-5---|6---8-6-|5-------|
g |542-2-24|542-2---|5-------|--------|----2---|
D |--------|--------|--------|--------|--------|
A |--------|--------|--------|--------|--------|
E |--------|--------|--------|--------|--------|

e |3-----65|6-----7-|5-----57|875-5-57|875-5---|
h |--------|----7---|--------|--------|--------|
g |--------|--------|--------|--------|--------|
D |--------|--------|--------|--------|--------|
A |--------|--------|--------|--------|--------|
E |--------|--------|--------|--------|--------|

e |--------|5-----8-|5-------|--------|--------|
h |7^7^7^7-|--------|--------|--------|--------|
g |--------|--------|--------|--------|--------|
D |--------|--------|--------|--------|--------|
A |--------|--------|--------|--------|--------|
E |--------|--------|--------|--------|--------|

wenn der (D)Weg dorthin so (C) schwierig ist,
(A)wenn ich nicht sein darf (G)wie ich will,
bleib ich (C)meinetwegen (D)hier

wenn der (D)Weg dorthin so (C)schwierig ist,
(A)ich stelle keinen Antrag (G)auf Asyl,
meinet (C)wegen (H) bleib ich (A)hier
Otros videos de esta canción
    138 exhibiciones
      • ½ Tono
      • A
      • Bb
      • B
      • C
      • Db
      • D
      • Eb
      • E
      • F
      • F#
      • G
      • Ab
    • Agregar a la lista

    Afinação da cifra

    Afinador online

      Ops (: Contenido disponible solo en portugués.
      OK