Cifra Club

I Will Remember

Toto

Tablatura: Principal (guitarra)
Tom: F
     F      Gm         Gm               D#  F   C/G 
|---------|----------|----------------|-------------------|
|----3--2-|-0--------|-----------3--2-|-0-------0---------|
|--3------|-----3----|---------3------|-----3-------------|
|---------|----------|----------------|-------------------|
|---------|----------|--5-------------|-------------------|
|---------|----------|--3-------------|-------------------|

       Gm                     D#                      F
I was born in the land of the sun and the tall green grass
       Gm                      D#                F        C/G
And I don't understand how all this has come to pass
          Gm                      D#               F        C/G
How we've come to surround ourselves in a sea of thieves
       D#                  F                  Gm
In a land without learning only the fools believe.

     F      Gm         Gm               D#  F   C/G 
|---------|----------|----------------|-------------------|
|----3--2-|-0--------|-----------3--2-|-0-------0---------|
|--3------|-----3----|---------3------|-----3-------------|
|---------|----------|----------------|-------------------|
|---------|----------|--5-------------|-------------------|
|---------|----------|--3-------------|-------------------|

       Gm                D#                F
I went driving last night on a dark canyon road
        Gm           D#             F      C/G
Had the sky to myself but I wasn't alone
        Gm                 D#            F      C/G
Had the pain of my lifetime for my company
D#                     F                  Gm
How did it end up like this for you and me?

     D#                          A#           F
When love breaks the promise the heart has to keep
   D#                        Gm
It leaves only truth here to find
         D#                        A#         F
When the spirit is crushed and the hurt is so deep 
    D#
Between you and I.

A#            F                Gm           F6/A               D#
   Even when love has come and gone and our hearts have moved along
          F
I will remember.
A#             F               Gm
   There was a time we had the trust
          F6/A         D#
And that always was enough
          F      D#            F           Gm
I will remember.      I will remember you.

     F      Gm         Gm               D#  F   C/G 
|---------|----------|----------------|-------------------|
|----3--2-|-0--------|-----------3--2-|-0-------0---------|
|--3------|-----3----|---------3------|-----3-------------|
|---------|----------|----------------|-------------------|
|---------|----------|--5-------------|-------------------|
|---------|----------|--3-------------|-------------------|

     Gm          D#           F  
As I open my eyes to one more day
    Gm                    D#                   F       C/G
The wind burns my face as    it whispers your name
       Gm                  D#              F        C/G
As it's pulling me forward    it tears me free
D#                     F                  Gm
And the only thing left is the tears for you and me.

            D#                          A#           F
'Cause when love breaks the promise the heart has to keep
   D#                        Gm
It leaves only truth here to find
         D#                    A#         F
When the spirit is crushed and hurt is so deep
    D#
Between you and I.

A#            F                 Gm           F6/A               D#
    Even when love has come and gone and our hearts have moved along
           F
I will remember.
A#          F               Gm
There was a time we had the trust
          F6/A         D#
And that always was enough
          F      D#            F           Gm
I will remember.     I will remember you.

     F      Gm         Gm               D#  F   C/G 
|---------|----------|----------------|-------------------|
|----3--2-|-0--------|-----------3--2-|-0-------0---------|
|--3------|-----3----|---------3------|-----3-------------|
|---------|----------|----------------|-------------------|
|---------|----------|--5-------------|-------------------|
|---------|----------|--3-------------|-------------------|

Fade away...

reproducciones 164
Acordes para:
    Composição: Stan Lynch / Steve Lukather Colaboración y revision:
    • Luca Baêta

    0 comentarios

    mostrar más comentarios

    ¿Conseguiste tocar?

    1 tocaron 0 aún no

    ¡Graba un vídeo tocando I Will Remember y envianoslo!

    00:00 / 00:00
    outros vídeos desta música
    repetir qualidade Automático
    Outros vídeos desta música
    00:00 / 00:00
    Automático
    OK