Cifra Club

Melanie

Toto

Tablatura: Principal (guitarra)
Tom: A#
(intro)

     C9              Bbsus9
E|---------------|-------|
B|--3-3----3-3---|-1-1---|
G|------5------5-|-----3-|
D|---------------|-------|
A|---------------|-------|
E|---------------|-------|

(verse)
     C9              Bbsus9   Cm             Bbsus9  Fsus9
E|---------------|-------|---------------|-------|---------------|
B|--3-3----3-3---|-1-1---|--3-3----3-3---|-1-1---|---------------|
G|------5------5-|-----3-|------5------5-|-----3-|-2-----0-----2-|
D|---------------|-------|---------------|-------|---3-----3-----|
A|---------------|-------|---------------|-------|-----3-----3---|
E|---------------|-------|---------------|-------|---------------|

C9        Eb7                       Bbsus9
Watching driving thru the night I'm all alone
C9    Eb7            Bbsus9            Fsus9
Empty endless road a thousand miles to go
C9       Eb7                       Bbsus9
Midnight five million thoughts are passing in a row
C9       Eb7                    Bbsus9   Fsus9
Will you still be waiting there God only knows

     Gm      Eb     Bbsus9  Fsus9
E|-------|-------|-------|---------------------------|
B|-------|-------|-------|---------------------------|
G|-3-2-3-|-3-3-3-|-3-3-3-|-2-----0-----2-----0-----2-|
D|-------|-------|-------|---3-----3-----3-----3-----|
A|-------|-------|-------|-----3-----3-----3-----3---|
E|-------|-------|-------|---------------------------|

Gm                   Eb                   Bbsus9       Fsus9
I can still see your face in my mind with every turn I take

     Am              Fsus9           C/E   Fsus9    G   Fsus9
E|---------------|---------------|--------------|-----1-|
B|-1-----0-----1-|-1-----1-----1-|-----1------1-|-8---1-|
G|---2-----2-----|---2-----2-----|---0-----0----|-7---0-|
D|-----2-----2---|-----3-----3---|-2-----3------|-5---3-|
A|---------------|---------------|--------------|-5---3-|
E|---------------|---------------|--------------|-------|

Am                      Fsus9                     C/E   Fsus9    G  F
And the wind through my heart feels so cold as it calls out your name

G   C   Fsus9       Am                G        C      Fsus9
Melanie nothing but the touch of your hand can rescue me
G   C   Fsus9        Am                 G       C      G  Fsus9
Melanie reach inside this emptiness and you can set me free

(intro)

Morning sun's in my eyes I'm tied to your soul
One chance one solitary life how could I let you go

Got a phone call or was it a dream a voice spoke to me
I could swear it was you that I heard crying desperately

(chorus)
reproducciones 150
Acordes para:
    Composição: Toto Colaboración y revision:
    • Ricelly Lopez
    • Danilo Gusmão

    0 comentarios

    mostrar más comentarios

    ¿Conseguiste tocar?

    0 tocaron 0 aún no

    ¡Graba un vídeo tocando Melanie y envianoslo!

    00:00 / 00:00
    outros vídeos desta música
    repetir qualidade Automático
    Outros vídeos desta música
    00:00 / 00:00
    Automático
    OK