Cifra Club

Rosana

Toto

Tablatura: Principal (guitarra)
Tom: F
------------------------------------------------------6-----|
-------------------------6-6\------8-8p6--8b10--8b10--------|
---------------------/5-------/5----------------------------|
-3--3-3--5-5/7-7~-------------------------------------------|
------------------------------------------------------------|
------------------------------------------------------------|


------------------------------------------------------------|
-8b10b8p6--8-6~/-------------------------10-13-10-11-13-----|
--------------------------------10-12-13--------------------|
--------------------------10-12-----------------------------|
--------------------10-12-----------------------------------|
------------------------------------------------------------|
Abaixo: os meios b15, da nota curvada, escolhem-na outra vez. Assim os meios de 13b15 b15 dobram-se acima de uma etapa cheia, e quando, escolher a nota outra vez.  

-10-13-10-13--13b15-b15-13~--13b15-b15-13~--13b15b13/15-----|
------------------------------------------------------------|
------------------------------------------------------------|
------------------------------------------------------------|
------------------------------------------------------------|
------------------------------------------------------------|

 [As 18] meios 15b17 dobra-se- em acima de uma etapa cheia do 15o fret, quando lá, usa-se em seu  o 16o e escolher a nota ao prender a curvatura, assim soando o Bb que é feito normalmente apenas fretting o 18o fret. 
-15b17-[18]-17b15p13~\--------------------------------------|
------------------------------------------------------------|
------------------------------------------------------------|
------------------------------------------------------------|
------------------------------------------------------------|
------------------------------------------------------------|
Veja a notação do primeiro solo. 
-12b13b12-10----10------------------12-------12-------------|
-------------13----11b12------15b17----15b17----15b18-b18~--|
-------------------------12~--------------------------------|
------------------------------------------------------------|
------------------------------------------------------------|
------------------------------------------------------------|


-------15-------------------------18b21b18-15---------------|
-18b20----18-15-18b20-b20~--18-15-------------18-15---------|
------------------------------------------------------------|
------------------------------------------------------------|
------------------------------------------------------------|
------------------------------------------------------------|


-----------------------------------------15-----------------|
-18b22b18-15-----18b20-18b20b18p15-18b20----18b20~----------|
-------------17---------------------------------------------|
------------------------------------------------------------|
------------------------------------------------------------|
------------------------------------------------------------|


--------17-20p17-18p17----17--------------------------------|
-----18----------------20----18p17-20-(15)-18p17-15-18p17---|
-/17--------------------------------------------------------|
------------------------------------------------------------|
------------------------------------------------------------|
------------------------------------------------------------|


------------------------------------------------------------|
-15h17p15---------------------------------------------------|
----------17p14-17-14-16-13--15-17-14h15p14-----------------|
--------------------------------------------17~\------------|
------------------------------------------------------------|
------------------------------------------------------------|

------------------------------------------------------------|
-----------------------------------------------15-18\15-13--|
-----------------------------14-15-17-14-15-17--------------|
--------------------14-15-17--------------------------------|
-----------13-15-17-----------------------------------------|
-/13-15-17--------------------------------------------------|


------------------------------------------------------------|
----15------------------------------------------------------|
-15----(14)-15b14--12----15-12~\-----------15----15----15---|
----------------------15---------(/12)-/15----15----15------|
------------------------------------------------------------|
------------------------------------------------------------|


------------------------------------------------------------|
------------------------------------------------------------|
----15----17----15----17b19-15-17b19-15-17-15---------------|
-15----15----15----15-------------------------17~\----------|
------------------------------------------------------------|
------------------------------------------------------------|

… Representa, repetir os compassos precedentes do riff. 
-------10------------12---------------------15-------15------|
-13b15----...--15b17----...--15b18~---18b20----18b20---------|
-------------------------------------------------------------|
-------------------------------------------------------------|
-------------------------------------------------------------|
-------------------------------------------------------------|


-18p15----15-------------15---------------------------------|
-------18----18-------15----------------------------18------|
----------------17b19-------17b18b17p15-------------17b19---|
----------------------------------------17-15-17-15---------|
------------------------------------------------------------|
------------------------------------------------------------|

O T indica uma coisa batendo right-hand. … representa mais repetições. 
------------------------------------------------------------|
-3-----h10Tp5p3h10Tp5p3h10Tp5p3-h7Tp5p3h10Tp5p3-...---------|
---5~\------------------------------------------------------|
------------------------------------------------------------|
------------------------------------------------------------|
A nota final é uma right-hand, dobrando-se acima de uma etapa cheia ao prender a nota batida com o right-hand. Pesaroso! não e o mais fácil.
------------------------------------------------------------|
------------------------------------------------------------|
-h12Tp5p3h14Tp5p3h15Tp5p3h17Tp5p3h17Tb19T~------------------|
------------------------------------------------------------|
------------------------------------------------------------|
------------------------------------------------------------|
reproducciones 312
Acordes para:
    Composição: TOTO Colaboración y revision:
    • Jorge Zago

    0 comentarios

    mostrar más comentarios

    ¿Conseguiste tocar?

    0 tocaron 0 aún no

    ¡Graba un vídeo tocando Rosana y envianoslo!

    00:00 / 00:00
    outros vídeos desta música
    repetir qualidade Automático
    Outros vídeos desta música
    00:00 / 00:00
    Automático
    OK