Cifra Club

She's Got Her Ticket

Tracy Chapman

Tablatura: Principal (guitarra)
Tom: C
She's got her ticket
I think she gonna use it
I think she going to fly away
No one should try and stop her
Persuade her with their power
She says that her mind is made

E|----------------------|
B|-----3/5--3-1---------|
G|---0----------2--2----|
D|----------------------|
A|----------------------|
E|----------------------|

  C
Up

             G
E|--------------------|
B|--------------------|
G|-------0--0-2-------|
D|---0h2--------------|
A|--------------------|
E|--------------------|

                Am
E|--------------------|
B|--------------------|
G|---0h2--2/4--0h2----|
D|--------------------|
A|--------------------|
E|--------------------|

              G
E|----------------------------|
B|-------5---3-----5p3--------|
G|---0h2---5-------4----5p4---|
D|-----------------5----5-----|
A|----------------------5-----|
E|----------------------------|

C
She's got her ticket
    G
I think she gonna use it
   Am                      G
I think she going to fly away
   C
No one should try and stop her
    G
Persuade her with their power
Am                         G
She says that her mind is made
C
Up

Am
Why not leave why not
G
Go away
Am
Too much hatred
G
Corruption and greed
Am
Give your life
         G
And invariably they leave you with
 C     G
Nothing

       Am                 C
Young girl ain't got no chances
    G
No roots to keep her strong
Am                 C
She's shed all pretenses
      G
That someday she'll belong
      Am               C
Some folks call her a runaway
   G
A failure in the race
    Am                   C
But she knows where her ticket takes her
G                               C
She will find her place in the sun
Solo 1:
   C      G               C              G
E|----------------------------3-0--------------|
B|-----1---3/5-3-------0h1--------3\1-1-0------|
G|--0h2----------4~---0------0------------0----|
D|---------------------------------------------|
A|---------------------------------------------|
E|---------------------------------------------|

                Am              G                 C               Am
E|------------------------3/5--5h7p5-3---5------------8---5-----------|
B|----------1h3----1---5-------------------5\3-1-1---5-8-5--8-5-5-----|
G|-----0-2p0---2--------------------------------2--------------7------|
D|--0h2----------------------------------------------------------7----|
A|--------------------------------------------------------------------|
E|--------------------------------------------------------------------|

Am
Why not leave why not
G
Go away

E|---------|
B|---------|
G|--0h2----|
D|---------|
A|---------|
E|---------|

Am
Too much hatred
G
Corruption and greed

E|------10-8-7-5--|
B|----8-----------|
G|--7-------------|
D|----------------|
A|----------------|
E|----------------|

Am
Give your life
       G                            C
And invariably they leave you with nothing
              C                    G
E|-----------------------------------------3-3--3-3--|
B|---8\6-6\5--5-----------1---1-1--0-------3-3--3-3--|
G|--5---------------------0---0-0--0-----------------|
D|--------------------0h2----------------------------|
A|---------------------------------------------------|
E|---------------------------------------------------|

C
She's got her ticket
    G
I think she gonna use it
Am                         G
I think she going to fly away

E|---3-----------3----3-------|
B|---3h5p3-------3h5--5p3-----|
G|---------5------------------|
D|----------------------------|
A|----------------------------|
E|----------------------------|

   C
No one should try and stop her
    G
Persuade her with their power

E|-------------|
B|---5p3p1-----|
G|--------2----|
D|-------------|
A|-------------|
E|-------------|

Am                         G
She says that her mind is made

                                   C
E|---3-----------------3-------------|
B|---3h5p3------5------3h5p3---------|
G|--------------4---0--------5-2--5--|
D|-----------------------------------|
A|-----------------------------------|
E|-----------------------------------|

C
Up
            C              G  C
And she'll fly, fly, fly...

Solo 2:
    C             G             Am             G
E|------3----5-------------------------------------------|
B|--3/5--------3/5-3---5-3-1-3-1--------1-3--------------|
G|--------------------------------2~---2----5-4--2-0-----|
D|-------------------------------------------------------|
A|-------------------------------------------------------|
E|-------------------------------------------------------|

           C                             G             Am              G
E|--------3---------------------3-------------------------------------------------|
B|-----1---5-3-1--5-3-1--3-1-3--3h5p3-3-1/3-1-0---1-1-1---0-1--3/5-5--1-0---------|
G|--0h2------------------------------5-----------------2------------------2-0-----|
D|--------------------------------------------------------------------------------|
A|--------------------------------------------------------------------------------|
E|--------------------------------------------------------------------------------|

                 C              G                   Am                G
E|--------------8-8-8-8--10/12---10-8-10-8-10/12-8---10-8----8------------8-7-------..---|
B|--1-3/5-3-1---8----------------------------------------8h10--10---8-10-------10-8--..--|
G|-----------------------------------------------------------------9-----------------..--|
D|-----------------------------------------------------------------------------------..--|
A|-----------------------------------------------------------------------------------..--|
E|-----------------------------------------------------------------------------------..--|
reproducciones 214
Acordes para:
    Composição: Tracy Chapman Colaboración y revision:
    • Ramirez Luz

    0 comentarios

    mostrar más comentarios

    ¿Conseguiste tocar?

    0 tocaron 0 aún no

    ¡Graba un vídeo tocando She's Got Her Ticket y envianoslo!

    00:00 / 00:00
    outros vídeos desta música
    repetir qualidade Automático
    Outros vídeos desta música
    00:00 / 00:00
    Automático
    OK