Cifra Club

Sing For You

Tracy Chapman

Tablatura: Principal (guitarra)
Tom: C
         C
E |------------------0---3p0----------0-----------|
B |----------1--3----------------1h3---------1----|
G |--------0--0---0----0--------------------------|
D |-----------------------------------------------|
A |----3---------------------3-----------3--------|
E |-----------------------------------------------|

   G
E |------------0----3--5---0--3---5----0---|
B |------3---------------------------------|
G |---0-----0----0---0---0------0----0-----|
D |----------------------------------------|
A |----------------------------------------|
E |-3--------------------------------------|

        Am
E |-------------------0----3-0-------------0------------|
B |--------1---3---------------------1h3------------1---|
G |------2---2-----2----2-------------------------------|
D |-----------------------------------------------------|
A |---0------------------------0---------------0--------|
E |-----------------------------------------------------|

   F                               G
E |--------------------------0-------|
B |--------1-----------------3--3----|
G |------2---2-------------0------0--|
D |----3-------3---------0-----------|
A |--3-------------------------------|
E |-------------------3--------------|

One, two, three, four
C
Sweet and high at the break of dawn
G
Simple tune that you can hum along too
Am                                               F
I remember there was a time
G
when I used to sing for you
C  G  Am  F  G
Do-n do do, do do
Do-n do do, do do do-do…
G
I used to sing for you
C  G  Am  F  G
Do-n do do, do do
Do-n do do, do do do-do…
C
Knew all the words to the popular songs
G
With the radio on full volume
Am                                            F
I  remember there was a time
G
When I used to sing for you

Do-n do do, do do do
Do-n do do, do do do do-do…
I used to sing for you
Do-n do do, do do
Do-n do do, do do do-do…

Am
Forget the Chorus, you're the bridge
G
The words and music to every-day I've lived
Dm
There's nothing, I wouldn't give
F                                 G
For one more time, when I can sing for you

Do-n do do, do do do
Do-n do do, do do do do - do…
Oh Yeah
Do-n do do, do do do do
Do-n do do, do do do do - do…
C
Soft and low when the evening comes
G
Holding you, sleeping in my arms
Am                                             F
I remember there was a time
 G
When I used to sing for you

Do-n do do, do do do do
Do-n do do, do do do do - do…
…when I used to sing for you
Do-n do do, do do do do
Do-n do do, do do do do - do…
G
I used to sing for you.
reproducciones 278
Acordes para:
    Composição: Tracy Chapman Colaboración y revision:
    • Daiane Amorim

    0 comentarios

    mostrar más comentarios

    ¿Conseguiste tocar?

    0 tocaron 0 aún no

    ¡Graba un vídeo tocando Sing For You y envianoslo!

    00:00 / 00:00
    outros vídeos desta música
    repetir qualidade Automático
    Outros vídeos desta música
    00:00 / 00:00
    Automático
    OK