Cifra Club

Aprenda

Marry Me

Train

Tablatura: Principal (guitarra)
tono: C
[Intro]

   Am7/E                         F5(9)
E|----------------------------------------------------------------|
B|-1-------1------1-------1------1-------1------1-------1---------|
G|-----0-------0------0-------0------0-------0------0-------0-----|
D|---2-------2------2-------2------3-------3------3-------3-------|
A|----------------------------------------------------------------|
E|-0-----0--------0-----0--------1-----1--------1-----1-----------|

   Am7/E                         F5(9)
E|----------------------------------------------------------------|
B|-1-------1------1-------1------1-------1------1-----------------|
G|-----0-------0------0-------0------0-------0--------------------|
D|---2-------2------2-------2------3-------3----------------------|
A|----------------------------------------------------------------|
E|-0-----0--------0-----0--------1-----1--------1-----------------|

[Versos e Refrão]

   C                            G4/B          G/B
E|----------------------------------------------------------------|
B|-1-------1------1-------1-----1-------1-----3-------3-----------|
G|-----0-------0------0-------0-----0-------0-----0-------0-------|
D|---2-------2------2-------2-----0-------0-----0-------0---------|
A|-3-----3--------3-----3-------2-----2-------2-----2-------------|
E|----------------------------------------------------------------|

   Am               Am7/G         F5(9)
E|----------------------------------------------------------------|
B|-1-------1------1-------1-----1-------1-----1-------1-----------|
G|-----2-------2------0-------0-----0-------0-----0-------0-------|
D|---2-------2------2-------2-----3-------3-----3-------3---------|
A|-0-----0--------------------------------------------------------|
E|----------------3-----3-------1-----1-------1-----1-------------|

   C                            G4/B          G/B
E|----------------------------------------------------------------|
B|-1-------1------1-------1-----1-------1-----3-------3-----------|
G|-----0-------0------0-------0-----0-------0-----0-------0-------|
D|---2-------2------2-------2-----0-------0-----0-------0---------|
A|-3-----3--------3-----3-------2-----2-------2-----2-------------|
E|----------------------------------------------------------------|

   Am             Am7/G         F5(9)
E|----------------------------------------------------------------|
B|-1-------1------1-------1-----1-------1-----1-------1-----------|
G|-----2-------2------0-------0-----0-------0-----0-------0-------|
D|---2-------2------2-------2-----3-------3-----3-------3---------|
A|-0-----0--------------------------------------------------------|
E|----------------3-----3-------1-----1-------1-----1-------------|

   Am7/E                         F5(9)
E|----------------------------------------------------------------|
B|-1-------1------1-------1------1-------1------1-------1---------|
G|-----0-------0------0-------0------0-------0------0-------0-----|
D|---2-------2------2-------2------3-------3------3-------3-------|
A|----------------------------------------------------------------|
E|-0-----0--------0-----0--------1-----1--------1-----1-----------|

   Am7/E                         F5(9)
E|----------------------------------------------------------------|
B|-1-------1------1-------1------1-------1------1-----------------|
G|-----0-------0------0-------0------0-------0--------------------|
D|---2-------2------2-------2------3-------3----------------------|
A|----------------------------------------------------------------|
E|-0-----0--------0-----0--------1-----1--------1-----------------|

C                      G4/B             G/B
Forever can never be long enough for me
Am                  Am7/G              F5(9)
To feel like I've had long enough with you
C                   G4/B               G/B  Am
Forget the world now we won't let them see
    Am7/G                 F5(9)
But there's one thing left to do
Am7/E                     F5(9)
Now that the weight has lifted
Am7/E                F5(9)
And love has surely shifted my way

C     G4/B G/B Am Am7/G            F5(9)
Marry me          today and every day
C     G4/B G/B  Am              Am7/G           F5(9)
Marry me       if I ever get the nerve to say hello in this cafe
        Am7/E    F5(9)          Am7/E  F5(9)
Say you will   (humm)    say you will (hmm)

C                       G4/B               G/B
Together could never be close enough for me
Am               Am7/G            F5(9)
To feel like I am close enough to you
C                    G4/B            G/B
You wear white and I'll wear out the words
   Am     Am7/G    F5(9)
I Love You     and you're Beautiful
Am7/E                F5(9)
Now that the wait is over
Am7/E                F5(9)
And love has finally shown her my way

C     G4/B G/B Am Am7/G            F5(9)
Marry me          today and every day
C     G4/B G/B  Am              Am7/G           F5(9)
Marry me       if I ever get the nerve to say hello in this cafe
        Am7/E    F5(9)          Am7/E  F5(9)
Say you will   (humm)    say you will (hmm)

[Ponte]

   C4/Bb                        Am7
E|----------------------------------------------------------------|
B|-1-------1------1-------1-----1-------1-----1-------1-----------|
G|-----0-------0------0-------0-----0-------0-----0-------0-------|
D|---3-------3------3-------3-----2-------2-----2-------2---------|
A|-1-----1--------1-----1-------0-----0-------0-----0-------------|
E|----------------------------------------------------------------|

   C                            G4/B
E|----------------------------------------------------------------|
B|-1-------1------1-------1-----1-------1-----1-------1-----------|
G|-----0-------0------0-------0-----0-------0-----0-------0-------|
D|---2-------2------2-------2-----0-------0-----0-------0---------|
A|-3-----3--------3-----3-------2-----2-------2-----2-------------|
E|----------------------------------------------------------------|

   C4/Bb                        Am7
E|----------------------------------------------------------------|
B|-1-------1------1-------1-----1-------1-----1-------1-----------|
G|-----0-------0------0-------0-----0-------0-----0-------0-------|
D|---3-------3------3-------3-----2-------2-----2-------2---------|
A|-1-----1--------1-----1-------0-----0-------0-----0-------------|
E|----------------------------------------------------------------|

   C                            G4/B
E|----------------------------------------------------------------|
B|-1-------1------1-------1-----1-------1-----1-------1-----------|
G|-----0-------0------0-------0-----0-------0-----0-------0-------|
D|---2-------2------2-------2-----0-------0-----0-------0---------|
A|-3-----3--------3-----3-------2-----2-------2-----2-------------|
E|----------------------------------------------------------------|

   Am7                           F5(9)
E|----------------------------------------------------------------|
B|-1-------1------1-------1------1-------1------1-----------------|
G|-----0-------0------0-------0------0-------0--------------------|
D|---2-------2------2-------2------3-------3----------------------|
A|-0-----0--------0-----0-----------------------------------------|
E|-------------------------------1-----1--------1-----------------|

C4/Bb      Am7                C              G4/B
Promise me   you'll always be    happy by my side
C4/Bb        Am7           C                 G4/B   C4/Bb F5(9)
I promise to   sing to you   when all the music dies

C     G4/B G/B Am Am7/G            F5(9)
Marry me          today and every day
C     G4/B G/B  Am              Am7/G           F5(9)
Marry me       if I ever get the nerve to say hello in this cafe
        Am7/E    F5(9)          Am7/E  F5(9)
Say you will   (humm)    say you will (hmm))

Am7/E F5(9)
Marry me
Composição de Dave Katz / Pat Monahan / Sam Hollander
3.384 reproducciones
  • Simplificar cifra
    • ½ Tono
    • A
    • Bb
    • B
    • C
    • Db
    • D
    • Eb
    • E
    • F
    • F#
    • G
    • Ab
  • Adicionar à lista

    0 comentarios

    Ver todos os comentários
    00:00 / 00:00
    outros vídeos desta música
    repetir qualidade Automático
    Outros vídeos desta música
    00:00 / 00:00
    Automático
    OK